  0
SECTION
  2
HEADER
  9
$ACADVER
  1
AC1009
  9
$LIMMIN
 10
5.590000000000002
 20
5.608400000000001
  9
$LIMMAX
 10
8.887450000000003
 20
7.991866666666669
  9
$GRIDMODE
 70
60
  9
$GRIDUNIT
 10
  0
 20
  0
  9
$SNAPMODE
 70
1
  9
$SNAPSTYLE
 70
0
  9
$SNAPUNIT
 10
0.001
 20
0.001
  9
$FILLMODE
 70
1
  9
$CECOLOR
 62
256
  0
ENDSEC
  0
SECTION
  2
ENTITIES
  0
POLYLINE
  8
DRD
 66
      1
 70
0
 40
0.0100
 41
0.0100
  0
VERTEX
  8
DRD
 10
2.4360
 20
0.4210
 30
 0.0
  0
VERTEX
  8
DRD
 10
2.4360
 20
0.4710
 30
 0.0
  0
SEQEND
  8
DRD
  0
POLYLINE
  8
DRD
 66
      1
 70
1
 40
0.0050
 41
0.0050
  0
VERTEX
  8
DRD
 10
2.4335
 20
0.4210
 30
 0.0
 42
1.0
  0
VERTEX
  8
DRD
 10
2.4385
 20
0.4210
 30
 0.0
 42
1.0
  0
SEQEND
  8
DRD
  0
POLYLINE
  8
DRD
 66
      1
 70
1
 40
0.0050
 41
0.0050
  0
VERTEX
  8
DRD
 10
2.4335
 20
0.4710
 30
 0.0
 42
1.0
  0
VERTEX
  8
DRD
 10
2.4385
 20
0.4710
 30
 0.0
 42
1.0
  0
SEQEND
  8
DRD
  0
POLYLINE
  8
DRD
 66
      1
 70
0
 40
0.0100
 41
0.0100
  0
VERTEX
  8
DRD
 10
2.4110
 20
0.4460
 30
 0.0
  0
VERTEX
  8
DRD
 10
2.4610
 20
0.4460
 30
 0.0
  0
SEQEND
  8
DRD
  0
POLYLINE
  8
DRD
 66
      1
 70
1
 40
0.0050
 41
0.0050
  0
VERTEX
  8
DRD
 10
2.4085
 20
0.4460
 30
 0.0
 42
1.0
  0
VERTEX
  8
DRD
 10
2.4135
 20
0.4460
 30
 0.0
 42
1.0
  0
SEQEND
  8
DRD
  0
POLYLINE
  8
DRD
 66
      1
 70
1
 40
0.0050
 41
0.0050
  0
VERTEX
  8
DRD
 10
2.4585
 20
0.4460
 30
 0.0
 42
1.0
  0
VERTEX
  8
DRD
 10
2.4635
 20
0.4460
 30
 0.0
 42
1.0
  0
SEQEND
  8
DRD
  0
POLYLINE
  8
DRD
 66
      1
 70
0
 40
0.0100
 41
0.0100
  0
VERTEX
  8
DRD
 10
2.4610
 20
0.4210
 30
 0.0
  0
VERTEX
  8
DRD
 10
2.4110
 20
0.4210
 30
 0.0
  0
SEQEND
  8
DRD
  0
POLYLINE
  8
DRD
 66
      1
 70
1
 40
0.0050
 41
0.0050
  0
VERTEX
  8
DRD
 10
2.4585
 20
0.4210
 30
 0.0
 42
1.0
  0
VERTEX
  8
DRD
 10
2.4635
 20
0.4210
 30
 0.0
 42
1.0
  0
SEQEND
  8
DRD
  0
POLYLINE
  8
DRD
 66
      1
 70
1
 40
0.0050
 41
0.0050
  0
VERTEX
  8
DRD
 10
2.4085
 20
0.4210
 30
 0.0
 42
1.0
  0
VERTEX
  8
DRD
 10
2.4135
 20
0.4210
 30
 0.0
 42
1.0
  0
SEQEND
  8
DRD
  0
POLYLINE
  8
DRD
 66
      1
 70
0
 40
0.0100
 41
0.0100
  0
VERTEX
  8
DRD
 10
2.4610
 20
0.4710
 30
 0.0
  0
VERTEX
  8
DRD
 10
2.4610
 20
0.4210
 30
 0.0
  0
SEQEND
  8
DRD
  0
POLYLINE
  8
DRD
 66
      1
 70
1
 40
0.0050
 41
0.0050
  0
VERTEX
  8
DRD
 10
2.4585
 20
0.4710
 30
 0.0
 42
1.0
  0
VERTEX
  8
DRD
 10
2.4635
 20
0.4710
 30
 0.0
 42
1.0
  0
SEQEND
  8
DRD
  0
POLYLINE
  8
DRD
 66
      1
 70
1
 40
0.0050
 41
0.0050
  0
VERTEX
  8
DRD
 10
2.4585
 20
0.4210
 30
 0.0
 42
1.0
  0
VERTEX
  8
DRD
 10
2.4635
 20
0.4210
 30
 0.0
 42
1.0
  0
SEQEND
  8
DRD
  0
POLYLINE
  8
DRD
 66
      1
 70
0
 40
0.0100
 41
0.0100
  0
VERTEX
  8
DRD
 10
2.4110
 20
0.4710
 30
 0.0
  0
VERTEX
  8
DRD
 10
2.4610
 20
0.4710
 30
 0.0
  0
SEQEND
  8
DRD
  0
POLYLINE
  8
DRD
 66
      1
 70
1
 40
0.0050
 41
0.0050
  0
VERTEX
  8
DRD
 10
2.4085
 20
0.4710
 30
 0.0
 42
1.0
  0
VERTEX
  8
DRD
 10
2.4135
 20
0.4710
 30
 0.0
 42
1.0
  0
SEQEND
  8
DRD
  0
POLYLINE
  8
DRD
 66
      1
 70
1
 40
0.0050
 41
0.0050
  0
VERTEX
  8
DRD
 10
2.4585
 20
0.4710
 30
 0.0
 42
1.0
  0
VERTEX
  8
DRD
 10
2.4635
 20
0.4710
 30
 0.0
 42
1.0
  0
SEQEND
  8
DRD
  0
POLYLINE
  8
DRD
 66
      1
 70
0
 40
0.0100
 41
0.0100
  0
VERTEX
  8
DRD
 10
2.4110
 20
0.4210
 30
 0.0
  0
VERTEX
  8
DRD
 10
2.4110
 20
0.4710
 30
 0.0
  0
SEQEND
  8
DRD
  0
POLYLINE
  8
DRD
 66
      1
 70
1
 40
0.0050
 41
0.0050
  0
VERTEX
  8
DRD
 10
2.4085
 20
0.4210
 30
 0.0
 42
1.0
  0
VERTEX
  8
DRD
 10
2.4135
 20
0.4210
 30
 0.0
 42
1.0
  0
SEQEND
  8
DRD
  0
POLYLINE
  8
DRD
 66
      1
 70
1
 40
0.0050
 41
0.0050
  0
VERTEX
  8
DRD
 10
2.4085
 20
0.4710
 30
 0.0
 42
1.0
  0
VERTEX
  8
DRD
 10
2.4135
 20
0.4710
 30
 0.0
 42
1.0
  0
SEQEND
  8
DRD
  0
POLYLINE
  8
DRL
 66
      1
 70
1
 40
0.0620
 41
0.0620
  0
VERTEX
  8
DRL
 10
2.4050
 20
0.4460
 30
 0.0
 42
1.0
  0
VERTEX
  8
DRL
 10
2.4670
 20
0.4460
 30
 0.0
 42
1.0
  0
SEQEND
  8
DRL
  0
POLYLINE
  8
DRD
 66
      1
 70
0
 40
0.0100
 41
0.0100
  0
VERTEX
  8
DRD
 10
0.4640
 20
0.4210
 30
 0.0
  0
VERTEX
  8
DRD
 10
0.4640
 20
0.4710
 30
 0.0
  0
SEQEND
  8
DRD
  0
POLYLINE
  8
DRD
 66
      1
 70
1
 40
0.0050
 41
0.0050
  0
VERTEX
  8
DRD
 10
0.4615
 20
0.4210
 30
 0.0
 42
1.0
  0
VERTEX
  8
DRD
 10
0.4665
 20
0.4210
 30
 0.0
 42
1.0
  0
SEQEND
  8
DRD
  0
POLYLINE
  8
DRD
 66
      1
 70
1
 40
0.0050
 41
0.0050
  0
VERTEX
  8
DRD
 10
0.4615
 20
0.4710
 30
 0.0
 42
1.0
  0
VERTEX
  8
DRD
 10
0.4665
 20
0.4710
 30
 0.0
 42
1.0
  0
SEQEND
  8
DRD
  0
POLYLINE
  8
DRD
 66
      1
 70
0
 40
0.0100
 41
0.0100
  0
VERTEX
  8
DRD
 10
0.4390
 20
0.4460
 30
 0.0
  0
VERTEX
  8
DRD
 10
0.4890
 20
0.4460
 30
 0.0
  0
SEQEND
  8
DRD
  0
POLYLINE
  8
DRD
 66
      1
 70
1
 40
0.0050
 41
0.0050
  0
VERTEX
  8
DRD
 10
0.4365
 20
0.4460
 30
 0.0
 42
1.0
  0
VERTEX
  8
DRD
 10
0.4415
 20
0.4460
 30
 0.0
 42
1.0
  0
SEQEND
  8
DRD
  0
POLYLINE
  8
DRD
 66
      1
 70
1
 40
0.0050
 41
0.0050
  0
VERTEX
  8
DRD
 10
0.4865
 20
0.4460
 30
 0.0
 42
1.0
  0
VERTEX
  8
DRD
 10
0.4915
 20
0.4460
 30
 0.0
 42
1.0
  0
SEQEND
  8
DRD
  0
POLYLINE
  8
DRD
 66
      1
 70
0
 40
0.0100
 41
0.0100
  0
VERTEX
  8
DRD
 10
0.4890
 20
0.4210
 30
 0.0
  0
VERTEX
  8
DRD
 10
0.4390
 20
0.4210
 30
 0.0
  0
SEQEND
  8
DRD
  0
POLYLINE
  8
DRD
 66
      1
 70
1
 40
0.0050
 41
0.0050
  0
VERTEX
  8
DRD
 10
0.4865
 20
0.4210
 30
 0.0
 42
1.0
  0
VERTEX
  8
DRD
 10
0.4915
 20
0.4210
 30
 0.0
 42
1.0
  0
SEQEND
  8
DRD
  0
POLYLINE
  8
DRD
 66
      1
 70
1
 40
0.0050
 41
0.0050
  0
VERTEX
  8
DRD
 10
0.4365
 20
0.4210
 30
 0.0
 42
1.0
  0
VERTEX
  8
DRD
 10
0.4415
 20
0.4210
 30
 0.0
 42
1.0
  0
SEQEND
  8
DRD
  0
POLYLINE
  8
DRD
 66
      1
 70
0
 40
0.0100
 41
0.0100
  0
VERTEX
  8
DRD
 10
0.4890
 20
0.4710
 30
 0.0
  0
VERTEX
  8
DRD
 10
0.4890
 20
0.4210
 30
 0.0
  0
SEQEND
  8
DRD
  0
POLYLINE
  8
DRD
 66
      1
 70
1
 40
0.0050
 41
0.0050
  0
VERTEX
  8
DRD
 10
0.4865
 20
0.4710
 30
 0.0
 42
1.0
  0
VERTEX
  8
DRD
 10
0.4915
 20
0.4710
 30
 0.0
 42
1.0
  0
SEQEND
  8
DRD
  0
POLYLINE
  8
DRD
 66
      1
 70
1
 40
0.0050
 41
0.0050
  0
VERTEX
  8
DRD
 10
0.4865
 20
0.4210
 30
 0.0
 42
1.0
  0
VERTEX
  8
DRD
 10
0.4915
 20
0.4210
 30
 0.0
 42
1.0
  0
SEQEND
  8
DRD
  0
POLYLINE
  8
DRD
 66
      1
 70
0
 40
0.0100
 41
0.0100
  0
VERTEX
  8
DRD
 10
0.4390
 20
0.4710
 30
 0.0
  0
VERTEX
  8
DRD
 10
0.4890
 20
0.4710
 30
 0.0
  0
SEQEND
  8
DRD
  0
POLYLINE
  8
DRD
 66
      1
 70
1
 40
0.0050
 41
0.0050
  0
VERTEX
  8
DRD
 10
0.4365
 20
0.4710
 30
 0.0
 42
1.0
  0
VERTEX
  8
DRD
 10
0.4415
 20
0.4710
 30
 0.0
 42
1.0
  0
SEQEND
  8
DRD
  0
POLYLINE
  8
DRD
 66
      1
 70
1
 40
0.0050
 41
0.0050
  0
VERTEX
  8
DRD
 10
0.4865
 20
0.4710
 30
 0.0
 42
1.0
  0
VERTEX
  8
DRD
 10
0.4915
 20
0.4710
 30
 0.0
 42
1.0
  0
SEQEND
  8
DRD
  0
POLYLINE
  8
DRD
 66
      1
 70
0
 40
0.0100
 41
0.0100
  0
VERTEX
  8
DRD
 10
0.4390
 20
0.4210
 30
 0.0
  0
VERTEX
  8
DRD
 10
0.4390
 20
0.4710
 30
 0.0
  0
SEQEND
  8
DRD
  0
POLYLINE
  8
DRD
 66
      1
 70
1
 40
0.0050
 41
0.0050
  0
VERTEX
  8
DRD
 10
0.4365
 20
0.4210
 30
 0.0
 42
1.0
  0
VERTEX
  8
DRD
 10
0.4415
 20
0.4210
 30
 0.0
 42
1.0
  0
SEQEND
  8
DRD
  0
POLYLINE
  8
DRD
 66
      1
 70
1
 40
0.0050
 41
0.0050
  0
VERTEX
  8
DRD
 10
0.4365
 20
0.4710
 30
 0.0
 42
1.0
  0
VERTEX
  8
DRD
 10
0.4415
 20
0.4710
 30
 0.0
 42
1.0
  0
SEQEND
  8
DRD
  0
POLYLINE
  8
DRL
 66
      1
 70
1
 40
0.0620
 41
0.0620
  0
VERTEX
  8
DRL
 10
0.4330
 20
0.4460
 30
 0.0
 42
1.0
  0
VERTEX
  8
DRL
 10
0.4950
 20
0.4460
 30
 0.0
 42
1.0
  0
SEQEND
  8
DRL
  0
POLYLINE
  8
DRD
 66
      1
 70
0
 40
0.0100
 41
0.0100
  0
VERTEX
  8
DRD
 10
2.4360
 20
1.5630
 30
 0.0
  0
VERTEX
  8
DRD
 10
2.4360
 20
1.6130
 30
 0.0
  0
SEQEND
  8
DRD
  0
POLYLINE
  8
DRD
 66
      1
 70
1
 40
0.0050
 41
0.0050
  0
VERTEX
  8
DRD
 10
2.4335
 20
1.5630
 30
 0.0
 42
1.0
  0
VERTEX
  8
DRD
 10
2.4385
 20
1.5630
 30
 0.0
 42
1.0
  0
SEQEND
  8
DRD
  0
POLYLINE
  8
DRD
 66
      1
 70
1
 40
0.0050
 41
0.0050
  0
VERTEX
  8
DRD
 10
2.4335
 20
1.6130
 30
 0.0
 42
1.0
  0
VERTEX
  8
DRD
 10
2.4385
 20
1.6130
 30
 0.0
 42
1.0
  0
SEQEND
  8
DRD
  0
POLYLINE
  8
DRD
 66
      1
 70
0
 40
0.0100
 41
0.0100
  0
VERTEX
  8
DRD
 10
2.4110
 20
1.5880
 30
 0.0
  0
VERTEX
  8
DRD
 10
2.4610
 20
1.5880
 30
 0.0
  0
SEQEND
  8
DRD
  0
POLYLINE
  8
DRD
 66
      1
 70
1
 40
0.0050
 41
0.0050
  0
VERTEX
  8
DRD
 10
2.4085
 20
1.5880
 30
 0.0
 42
1.0
  0
VERTEX
  8
DRD
 10
2.4135
 20
1.5880
 30
 0.0
 42
1.0
  0
SEQEND
  8
DRD
  0
POLYLINE
  8
DRD
 66
      1
 70
1
 40
0.0050
 41
0.0050
  0
VERTEX
  8
DRD
 10
2.4585
 20
1.5880
 30
 0.0
 42
1.0
  0
VERTEX
  8
DRD
 10
2.4635
 20
1.5880
 30
 0.0
 42
1.0
  0
SEQEND
  8
DRD
  0
POLYLINE
  8
DRD
 66
      1
 70
0
 40
0.0100
 41
0.0100
  0
VERTEX
  8
DRD
 10
2.4610
 20
1.5630
 30
 0.0
  0
VERTEX
  8
DRD
 10
2.4110
 20
1.5630
 30
 0.0
  0
SEQEND
  8
DRD
  0
POLYLINE
  8
DRD
 66
      1
 70
1
 40
0.0050
 41
0.0050
  0
VERTEX
  8
DRD
 10
2.4585
 20
1.5630
 30
 0.0
 42
1.0
  0
VERTEX
  8
DRD
 10
2.4635
 20
1.5630
 30
 0.0
 42
1.0
  0
SEQEND
  8
DRD
  0
POLYLINE
  8
DRD
 66
      1
 70
1
 40
0.0050
 41
0.0050
  0
VERTEX
  8
DRD
 10
2.4085
 20
1.5630
 30
 0.0
 42
1.0
  0
VERTEX
  8
DRD
 10
2.4135
 20
1.5630
 30
 0.0
 42
1.0
  0
SEQEND
  8
DRD
  0
POLYLINE
  8
DRD
 66
      1
 70
0
 40
0.0100
 41
0.0100
  0
VERTEX
  8
DRD
 10
2.4610
 20
1.6130
 30
 0.0
  0
VERTEX
  8
DRD
 10
2.4610
 20
1.5630
 30
 0.0
  0
SEQEND
  8
DRD
  0
POLYLINE
  8
DRD
 66
      1
 70
1
 40
0.0050
 41
0.0050
  0
VERTEX
  8
DRD
 10
2.4585
 20
1.6130
 30
 0.0
 42
1.0
  0
VERTEX
  8
DRD
 10
2.4635
 20
1.6130
 30
 0.0
 42
1.0
  0
SEQEND
  8
DRD
  0
POLYLINE
  8
DRD
 66
      1
 70
1
 40
0.0050
 41
0.0050
  0
VERTEX
  8
DRD
 10
2.4585
 20
1.5630
 30
 0.0
 42
1.0
  0
VERTEX
  8
DRD
 10
2.4635
 20
1.5630
 30
 0.0
 42
1.0
  0
SEQEND
  8
DRD
  0
POLYLINE
  8
DRD
 66
      1
 70
0
 40
0.0100
 41
0.0100
  0
VERTEX
  8
DRD
 10
2.4110
 20
1.6130
 30
 0.0
  0
VERTEX
  8
DRD
 10
2.4610
 20
1.6130
 30
 0.0
  0
SEQEND
  8
DRD
  0
POLYLINE
  8
DRD
 66
      1
 70
1
 40
0.0050
 41
0.0050
  0
VERTEX
  8
DRD
 10
2.4085
 20
1.6130
 30
 0.0
 42
1.0
  0
VERTEX
  8
DRD
 10
2.4135
 20
1.6130
 30
 0.0
 42
1.0
  0
SEQEND
  8
DRD
  0
POLYLINE
  8
DRD
 66
      1
 70
1
 40
0.0050
 41
0.0050
  0
VERTEX
  8
DRD
 10
2.4585
 20
1.6130
 30
 0.0
 42
1.0
  0
VERTEX
  8
DRD
 10
2.4635
 20
1.6130
 30
 0.0
 42
1.0
  0
SEQEND
  8
DRD
  0
POLYLINE
  8
DRD
 66
      1
 70
0
 40
0.0100
 41
0.0100
  0
VERTEX
  8
DRD
 10
2.4110
 20
1.5630
 30
 0.0
  0
VERTEX
  8
DRD
 10
2.4110
 20
1.6130
 30
 0.0
  0
SEQEND
  8
DRD
  0
POLYLINE
  8
DRD
 66
      1
 70
1
 40
0.0050
 41
0.0050
  0
VERTEX
  8
DRD
 10
2.4085
 20
1.5630
 30
 0.0
 42
1.0
  0
VERTEX
  8
DRD
 10
2.4135
 20
1.5630
 30
 0.0
 42
1.0
  0
SEQEND
  8
DRD
  0
POLYLINE
  8
DRD
 66
      1
 70
1
 40
0.0050
 41
0.0050
  0
VERTEX
  8
DRD
 10
2.4085
 20
1.6130
 30
 0.0
 42
1.0
  0
VERTEX
  8
DRD
 10
2.4135
 20
1.6130
 30
 0.0
 42
1.0
  0
SEQEND
  8
DRD
  0
POLYLINE
  8
DRL
 66
      1
 70
1
 40
0.0620
 41
0.0620
  0
VERTEX
  8
DRL
 10
2.4050
 20
1.5880
 30
 0.0
 42
1.0
  0
VERTEX
  8
DRL
 10
2.4670
 20
1.5880
 30
 0.0
 42
1.0
  0
SEQEND
  8
DRL
  0
POLYLINE
  8
DRD
 66
      1
 70
0
 40
0.0100
 41
0.0100
  0
VERTEX
  8
DRD
 10
0.4640
 20
1.5630
 30
 0.0
  0
VERTEX
  8
DRD
 10
0.4640
 20
1.6130
 30
 0.0
  0
SEQEND
  8
DRD
  0
POLYLINE
  8
DRD
 66
      1
 70
1
 40
0.0050
 41
0.0050
  0
VERTEX
  8
DRD
 10
0.4615
 20
1.5630
 30
 0.0
 42
1.0
  0
VERTEX
  8
DRD
 10
0.4665
 20
1.5630
 30
 0.0
 42
1.0
  0
SEQEND
  8
DRD
  0
POLYLINE
  8
DRD
 66
      1
 70
1
 40
0.0050
 41
0.0050
  0
VERTEX
  8
DRD
 10
0.4615
 20
1.6130
 30
 0.0
 42
1.0
  0
VERTEX
  8
DRD
 10
0.4665
 20
1.6130
 30
 0.0
 42
1.0
  0
SEQEND
  8
DRD
  0
POLYLINE
  8
DRD
 66
      1
 70
0
 40
0.0100
 41
0.0100
  0
VERTEX
  8
DRD
 10
0.4390
 20
1.5880
 30
 0.0
  0
VERTEX
  8
DRD
 10
0.4890
 20
1.5880
 30
 0.0
  0
SEQEND
  8
DRD
  0
POLYLINE
  8
DRD
 66
      1
 70
1
 40
0.0050
 41
0.0050
  0
VERTEX
  8
DRD
 10
0.4365
 20
1.5880
 30
 0.0
 42
1.0
  0
VERTEX
  8
DRD
 10
0.4415
 20
1.5880
 30
 0.0
 42
1.0
  0
SEQEND
  8
DRD
  0
POLYLINE
  8
DRD
 66
      1
 70
1
 40
0.0050
 41
0.0050
  0
VERTEX
  8
DRD
 10
0.4865
 20
1.5880
 30
 0.0
 42
1.0
  0
VERTEX
  8
DRD
 10
0.4915
 20
1.5880
 30
 0.0
 42
1.0
  0
SEQEND
  8
DRD
  0
POLYLINE
  8
DRD
 66
      1
 70
0
 40
0.0100
 41
0.0100
  0
VERTEX
  8
DRD
 10
0.4890
 20
1.5630
 30
 0.0
  0
VERTEX
  8
DRD
 10
0.4390
 20
1.5630
 30
 0.0
  0
SEQEND
  8
DRD
  0
POLYLINE
  8
DRD
 66
      1
 70
1
 40
0.0050
 41
0.0050
  0
VERTEX
  8
DRD
 10
0.4865
 20
1.5630
 30
 0.0
 42
1.0
  0
VERTEX
  8
DRD
 10
0.4915
 20
1.5630
 30
 0.0
 42
1.0
  0
SEQEND
  8
DRD
  0
POLYLINE
  8
DRD
 66
      1
 70
1
 40
0.0050
 41
0.0050
  0
VERTEX
  8
DRD
 10
0.4365
 20
1.5630
 30
 0.0
 42
1.0
  0
VERTEX
  8
DRD
 10
0.4415
 20
1.5630
 30
 0.0
 42
1.0
  0
SEQEND
  8
DRD
  0
POLYLINE
  8
DRD
 66
      1
 70
0
 40
0.0100
 41
0.0100
  0
VERTEX
  8
DRD
 10
0.4890
 20
1.6130
 30
 0.0
  0
VERTEX
  8
DRD
 10
0.4890
 20
1.5630
 30
 0.0
  0
SEQEND
  8
DRD
  0
POLYLINE
  8
DRD
 66
      1
 70
1
 40
0.0050
 41
0.0050
  0
VERTEX
  8
DRD
 10
0.4865
 20
1.6130
 30
 0.0
 42
1.0
  0
VERTEX
  8
DRD
 10
0.4915
 20
1.6130
 30
 0.0
 42
1.0
  0
SEQEND
  8
DRD
  0
POLYLINE
  8
DRD
 66
      1
 70
1
 40
0.0050
 41
0.0050
  0
VERTEX
  8
DRD
 10
0.4865
 20
1.5630
 30
 0.0
 42
1.0
  0
VERTEX
  8
DRD
 10
0.4915
 20
1.5630
 30
 0.0
 42
1.0
  0
SEQEND
  8
DRD
  0
POLYLINE
  8
DRD
 66
      1
 70
0
 40
0.0100
 41
0.0100
  0
VERTEX
  8
DRD
 10
0.4390
 20
1.6130
 30
 0.0
  0
VERTEX
  8
DRD
 10
0.4890
 20
1.6130
 30
 0.0
  0
SEQEND
  8
DRD
  0
POLYLINE
  8
DRD
 66
      1
 70
1
 40
0.0050
 41
0.0050
  0
VERTEX
  8
DRD
 10
0.4365
 20
1.6130
 30
 0.0
 42
1.0
  0
VERTEX
  8
DRD
 10
0.4415
 20
1.6130
 30
 0.0
 42
1.0
  0
SEQEND
  8
DRD
  0
POLYLINE
  8
DRD
 66
      1
 70
1
 40
0.0050
 41
0.0050
  0
VERTEX
  8
DRD
 10
0.4865
 20
1.6130
 30
 0.0
 42
1.0
  0
VERTEX
  8
DRD
 10
0.4915
 20
1.6130
 30
 0.0
 42
1.0
  0
SEQEND
  8
DRD
  0
POLYLINE
  8
DRD
 66
      1
 70
0
 40
0.0100
 41
0.0100
  0
VERTEX
  8
DRD
 10
0.4390
 20
1.5630
 30
 0.0
  0
VERTEX
  8
DRD
 10
0.4390
 20
1.6130
 30
 0.0
  0
SEQEND
  8
DRD
  0
POLYLINE
  8
DRD
 66
      1
 70
1
 40
0.0050
 41
0.0050
  0
VERTEX
  8
DRD
 10
0.4365
 20
1.5630
 30
 0.0
 42
1.0
  0
VERTEX
  8
DRD
 10
0.4415
 20
1.5630
 30
 0.0
 42
1.0
  0
SEQEND
  8
DRD
  0
POLYLINE
  8
DRD
 66
      1
 70
1
 40
0.0050
 41
0.0050
  0
VERTEX
  8
DRD
 10
0.4365
 20
1.6130
 30
 0.0
 42
1.0
  0
VERTEX
  8
DRD
 10
0.4415
 20
1.6130
 30
 0.0
 42
1.0
  0
SEQEND
  8
DRD
  0
POLYLINE
  8
DRL
 66
      1
 70
1
 40
0.0620
 41
0.0620
  0
VERTEX
  8
DRL
 10
0.4330
 20
1.5880
 30
 0.0
 42
1.0
  0
VERTEX
  8
DRL
 10
0.4950
 20
1.5880
 30
 0.0
 42
1.0
  0
SEQEND
  8
DRL
  0
POLYLINE
  8
DRD
 66
      1
 70
0
 40
0.0100
 41
0.0100
  0
VERTEX
  8
DRD
 10
1.2220
 20
1.5650
 30
 0.0
  0
VERTEX
  8
DRD
 10
1.2720
 20
1.5150
 30
 0.0
  0
SEQEND
  8
DRD
  0
POLYLINE
  8
DRD
 66
      1
 70
1
 40
0.0050
 41
0.0050
  0
VERTEX
  8
DRD
 10
1.2195
 20
1.5650
 30
 0.0
 42
1.0
  0
VERTEX
  8
DRD
 10
1.2245
 20
1.5650
 30
 0.0
 42
1.0
  0
SEQEND
  8
DRD
  0
POLYLINE
  8
DRD
 66
      1
 70
1
 40
0.0050
 41
0.0050
  0
VERTEX
  8
DRD
 10
1.2695
 20
1.5150
 30
 0.0
 42
1.0
  0
VERTEX
  8
DRD
 10
1.2745
 20
1.5150
 30
 0.0
 42
1.0
  0
SEQEND
  8
DRD
  0
POLYLINE
  8
DRD
 66
      1
 70
0
 40
0.0100
 41
0.0100
  0
VERTEX
  8
DRD
 10
1.2220
 20
1.5150
 30
 0.0
  0
VERTEX
  8
DRD
 10
1.2720
 20
1.5650
 30
 0.0
  0
SEQEND
  8
DRD
  0
POLYLINE
  8
DRD
 66
      1
 70
1
 40
0.0050
 41
0.0050
  0
VERTEX
  8
DRD
 10
1.2195
 20
1.5150
 30
 0.0
 42
1.0
  0
VERTEX
  8
DRD
 10
1.2245
 20
1.5150
 30
 0.0
 42
1.0
  0
SEQEND
  8
DRD
  0
POLYLINE
  8
DRD
 66
      1
 70
1
 40
0.0050
 41
0.0050
  0
VERTEX
  8
DRD
 10
1.2695
 20
1.5650
 30
 0.0
 42
1.0
  0
VERTEX
  8
DRD
 10
1.2745
 20
1.5650
 30
 0.0
 42
1.0
  0
SEQEND
  8
DRD
  0
POLYLINE
  8
DRD
 66
      1
 70
0
 40
0.0100
 41
0.0100
  0
VERTEX
  8
DRD
 10
1.2720
 20
1.5150
 30
 0.0
  0
VERTEX
  8
DRD
 10
1.2220
 20
1.5150
 30
 0.0
  0
SEQEND
  8
DRD
  0
POLYLINE
  8
DRD
 66
      1
 70
1
 40
0.0050
 41
0.0050
  0
VERTEX
  8
DRD
 10
1.2695
 20
1.5150
 30
 0.0
 42
1.0
  0
VERTEX
  8
DRD
 10
1.2745
 20
1.5150
 30
 0.0
 42
1.0
  0
SEQEND
  8
DRD
  0
POLYLINE
  8
DRD
 66
      1
 70
1
 40
0.0050
 41
0.0050
  0
VERTEX
  8
DRD
 10
1.2195
 20
1.5150
 30
 0.0
 42
1.0
  0
VERTEX
  8
DRD
 10
1.2245
 20
1.5150
 30
 0.0
 42
1.0
  0
SEQEND
  8
DRD
  0
POLYLINE
  8
DRD
 66
      1
 70
0
 40
0.0100
 41
0.0100
  0
VERTEX
  8
DRD
 10
1.2720
 20
1.5650
 30
 0.0
  0
VERTEX
  8
DRD
 10
1.2720
 20
1.5150
 30
 0.0
  0
SEQEND
  8
DRD
  0
POLYLINE
  8
DRD
 66
      1
 70
1
 40
0.0050
 41
0.0050
  0
VERTEX
  8
DRD
 10
1.2695
 20
1.5650
 30
 0.0
 42
1.0
  0
VERTEX
  8
DRD
 10
1.2745
 20
1.5650
 30
 0.0
 42
1.0
  0
SEQEND
  8
DRD
  0
POLYLINE
  8
DRD
 66
      1
 70
1
 40
0.0050
 41
0.0050
  0
VERTEX
  8
DRD
 10
1.2695
 20
1.5150
 30
 0.0
 42
1.0
  0
VERTEX
  8
DRD
 10
1.2745
 20
1.5150
 30
 0.0
 42
1.0
  0
SEQEND
  8
DRD
  0
POLYLINE
  8
DRD
 66
      1
 70
0
 40
0.0100
 41
0.0100
  0
VERTEX
  8
DRD
 10
1.2220
 20
1.5650
 30
 0.0
  0
VERTEX
  8
DRD
 10
1.2720
 20
1.5650
 30
 0.0
  0
SEQEND
  8
DRD
  0
POLYLINE
  8
DRD
 66
      1
 70
1
 40
0.0050
 41
0.0050
  0
VERTEX
  8
DRD
 10
1.2195
 20
1.5650
 30
 0.0
 42
1.0
  0
VERTEX
  8
DRD
 10
1.2245
 20
1.5650
 30
 0.0
 42
1.0
  0
SEQEND
  8
DRD
  0
POLYLINE
  8
DRD
 66
      1
 70
1
 40
0.0050
 41
0.0050
  0
VERTEX
  8
DRD
 10
1.2695
 20
1.5650
 30
 0.0
 42
1.0
  0
VERTEX
  8
DRD
 10
1.2745
 20
1.5650
 30
 0.0
 42
1.0
  0
SEQEND
  8
DRD
  0
POLYLINE
  8
DRD
 66
      1
 70
0
 40
0.0100
 41
0.0100
  0
VERTEX
  8
DRD
 10
1.2220
 20
1.5150
 30
 0.0
  0
VERTEX
  8
DRD
 10
1.2220
 20
1.5650
 30
 0.0
  0
SEQEND
  8
DRD
  0
POLYLINE
  8
DRD
 66
      1
 70
1
 40
0.0050
 41
0.0050
  0
VERTEX
  8
DRD
 10
1.2195
 20
1.5150
 30
 0.0
 42
1.0
  0
VERTEX
  8
DRD
 10
1.2245
 20
1.5150
 30
 0.0
 42
1.0
  0
SEQEND
  8
DRD
  0
POLYLINE
  8
DRD
 66
      1
 70
1
 40
0.0050
 41
0.0050
  0
VERTEX
  8
DRD
 10
1.2195
 20
1.5650
 30
 0.0
 42
1.0
  0
VERTEX
  8
DRD
 10
1.2245
 20
1.5650
 30
 0.0
 42
1.0
  0
SEQEND
  8
DRD
  0
POLYLINE
  8
DRL
 66
      1
 70
1
 40
0.0170
 41
0.0170
  0
VERTEX
  8
DRL
 10
1.2390
 20
1.5400
 30
 0.0
 42
1.0
  0
VERTEX
  8
DRL
 10
1.2550
 20
1.5400
 30
 0.0
 42
1.0
  0
SEQEND
  8
DRL
  0
POLYLINE
  8
DRD
 66
      1
 70
0
 40
0.0100
 41
0.0100
  0
VERTEX
  8
DRD
 10
1.2220
 20
1.3650
 30
 0.0
  0
VERTEX
  8
DRD
 10
1.2720
 20
1.3150
 30
 0.0
  0
SEQEND
  8
DRD
  0
POLYLINE
  8
DRD
 66
      1
 70
1
 40
0.0050
 41
0.0050
  0
VERTEX
  8
DRD
 10
1.2195
 20
1.3650
 30
 0.0
 42
1.0
  0
VERTEX
  8
DRD
 10
1.2245
 20
1.3650
 30
 0.0
 42
1.0
  0
SEQEND
  8
DRD
  0
POLYLINE
  8
DRD
 66
      1
 70
1
 40
0.0050
 41
0.0050
  0
VERTEX
  8
DRD
 10
1.2695
 20
1.3150
 30
 0.0
 42
1.0
  0
VERTEX
  8
DRD
 10
1.2745
 20
1.3150
 30
 0.0
 42
1.0
  0
SEQEND
  8
DRD
  0
POLYLINE
  8
DRD
 66
      1
 70
0
 40
0.0100
 41
0.0100
  0
VERTEX
  8
DRD
 10
1.2220
 20
1.3150
 30
 0.0
  0
VERTEX
  8
DRD
 10
1.2720
 20
1.3650
 30
 0.0
  0
SEQEND
  8
DRD
  0
POLYLINE
  8
DRD
 66
      1
 70
1
 40
0.0050
 41
0.0050
  0
VERTEX
  8
DRD
 10
1.2195
 20
1.3150
 30
 0.0
 42
1.0
  0
VERTEX
  8
DRD
 10
1.2245
 20
1.3150
 30
 0.0
 42
1.0
  0
SEQEND
  8
DRD
  0
POLYLINE
  8
DRD
 66
      1
 70
1
 40
0.0050
 41
0.0050
  0
VERTEX
  8
DRD
 10
1.2695
 20
1.3650
 30
 0.0
 42
1.0
  0
VERTEX
  8
DRD
 10
1.2745
 20
1.3650
 30
 0.0
 42
1.0
  0
SEQEND
  8
DRD
  0
POLYLINE
  8
DRD
 66
      1
 70
0
 40
0.0100
 41
0.0100
  0
VERTEX
  8
DRD
 10
1.2720
 20
1.3150
 30
 0.0
  0
VERTEX
  8
DRD
 10
1.2220
 20
1.3150
 30
 0.0
  0
SEQEND
  8
DRD
  0
POLYLINE
  8
DRD
 66
      1
 70
1
 40
0.0050
 41
0.0050
  0
VERTEX
  8
DRD
 10
1.2695
 20
1.3150
 30
 0.0
 42
1.0
  0
VERTEX
  8
DRD
 10
1.2745
 20
1.3150
 30
 0.0
 42
1.0
  0
SEQEND
  8
DRD
  0
POLYLINE
  8
DRD
 66
      1
 70
1
 40
0.0050
 41
0.0050
  0
VERTEX
  8
DRD
 10
1.2195
 20
1.3150
 30
 0.0
 42
1.0
  0
VERTEX
  8
DRD
 10
1.2245
 20
1.3150
 30
 0.0
 42
1.0
  0
SEQEND
  8
DRD
  0
POLYLINE
  8
DRD
 66
      1
 70
0
 40
0.0100
 41
0.0100
  0
VERTEX
  8
DRD
 10
1.2720
 20
1.3650
 30
 0.0
  0
VERTEX
  8
DRD
 10
1.2720
 20
1.3150
 30
 0.0
  0
SEQEND
  8
DRD
  0
POLYLINE
  8
DRD
 66
      1
 70
1
 40
0.0050
 41
0.0050
  0
VERTEX
  8
DRD
 10
1.2695
 20
1.3650
 30
 0.0
 42
1.0
  0
VERTEX
  8
DRD
 10
1.2745
 20
1.3650
 30
 0.0
 42
1.0
  0
SEQEND
  8
DRD
  0
POLYLINE
  8
DRD
 66
      1
 70
1
 40
0.0050
 41
0.0050
  0
VERTEX
  8
DRD
 10
1.2695
 20
1.3150
 30
 0.0
 42
1.0
  0
VERTEX
  8
DRD
 10
1.2745
 20
1.3150
 30
 0.0
 42
1.0
  0
SEQEND
  8
DRD
  0
POLYLINE
  8
DRD
 66
      1
 70
0
 40
0.0100
 41
0.0100
  0
VERTEX
  8
DRD
 10
1.2220
 20
1.3650
 30
 0.0
  0
VERTEX
  8
DRD
 10
1.2720
 20
1.3650
 30
 0.0
  0
SEQEND
  8
DRD
  0
POLYLINE
  8
DRD
 66
      1
 70
1
 40
0.0050
 41
0.0050
  0
VERTEX
  8
DRD
 10
1.2195
 20
1.3650
 30
 0.0
 42
1.0
  0
VERTEX
  8
DRD
 10
1.2245
 20
1.3650
 30
 0.0
 42
1.0
  0
SEQEND
  8
DRD
  0
POLYLINE
  8
DRD
 66
      1
 70
1
 40
0.0050
 41
0.0050
  0
VERTEX
  8
DRD
 10
1.2695
 20
1.3650
 30
 0.0
 42
1.0
  0
VERTEX
  8
DRD
 10
1.2745
 20
1.3650
 30
 0.0
 42
1.0
  0
SEQEND
  8
DRD
  0
POLYLINE
  8
DRD
 66
      1
 70
0
 40
0.0100
 41
0.0100
  0
VERTEX
  8
DRD
 10
1.2220
 20
1.3150
 30
 0.0
  0
VERTEX
  8
DRD
 10
1.2220
 20
1.3650
 30
 0.0
  0
SEQEND
  8
DRD
  0
POLYLINE
  8
DRD
 66
      1
 70
1
 40
0.0050
 41
0.0050
  0
VERTEX
  8
DRD
 10
1.2195
 20
1.3150
 30
 0.0
 42
1.0
  0
VERTEX
  8
DRD
 10
1.2245
 20
1.3150
 30
 0.0
 42
1.0
  0
SEQEND
  8
DRD
  0
POLYLINE
  8
DRD
 66
      1
 70
1
 40
0.0050
 41
0.0050
  0
VERTEX
  8
DRD
 10
1.2195
 20
1.3650
 30
 0.0
 42
1.0
  0
VERTEX
  8
DRD
 10
1.2245
 20
1.3650
 30
 0.0
 42
1.0
  0
SEQEND
  8
DRD
  0
POLYLINE
  8
DRL
 66
      1
 70
1
 40
0.0170
 41
0.0170
  0
VERTEX
  8
DRL
 10
1.2390
 20
1.3400
 30
 0.0
 42
1.0
  0
VERTEX
  8
DRL
 10
1.2550
 20
1.3400
 30
 0.0
 42
1.0
  0
SEQEND
  8
DRL
  0
POLYLINE
  8
DRD
 66
      1
 70
0
 40
0.0100
 41
0.0100
  0
VERTEX
  8
DRD
 10
1.6490
 20
1.5650
 30
 0.0
  0
VERTEX
  8
DRD
 10
1.6990
 20
1.5150
 30
 0.0
  0
SEQEND
  8
DRD
  0
POLYLINE
  8
DRD
 66
      1
 70
1
 40
0.0050
 41
0.0050
  0
VERTEX
  8
DRD
 10
1.6465
 20
1.5650
 30
 0.0
 42
1.0
  0
VERTEX
  8
DRD
 10
1.6515
 20
1.5650
 30
 0.0
 42
1.0
  0
SEQEND
  8
DRD
  0
POLYLINE
  8
DRD
 66
      1
 70
1
 40
0.0050
 41
0.0050
  0
VERTEX
  8
DRD
 10
1.6965
 20
1.5150
 30
 0.0
 42
1.0
  0
VERTEX
  8
DRD
 10
1.7015
 20
1.5150
 30
 0.0
 42
1.0
  0
SEQEND
  8
DRD
  0
POLYLINE
  8
DRD
 66
      1
 70
0
 40
0.0100
 41
0.0100
  0
VERTEX
  8
DRD
 10
1.6490
 20
1.5150
 30
 0.0
  0
VERTEX
  8
DRD
 10
1.6990
 20
1.5650
 30
 0.0
  0
SEQEND
  8
DRD
  0
POLYLINE
  8
DRD
 66
      1
 70
1
 40
0.0050
 41
0.0050
  0
VERTEX
  8
DRD
 10
1.6465
 20
1.5150
 30
 0.0
 42
1.0
  0
VERTEX
  8
DRD
 10
1.6515
 20
1.5150
 30
 0.0
 42
1.0
  0
SEQEND
  8
DRD
  0
POLYLINE
  8
DRD
 66
      1
 70
1
 40
0.0050
 41
0.0050
  0
VERTEX
  8
DRD
 10
1.6965
 20
1.5650
 30
 0.0
 42
1.0
  0
VERTEX
  8
DRD
 10
1.7015
 20
1.5650
 30
 0.0
 42
1.0
  0
SEQEND
  8
DRD
  0
POLYLINE
  8
DRD
 66
      1
 70
0
 40
0.0100
 41
0.0100
  0
VERTEX
  8
DRD
 10
1.6990
 20
1.5150
 30
 0.0
  0
VERTEX
  8
DRD
 10
1.6490
 20
1.5150
 30
 0.0
  0
SEQEND
  8
DRD
  0
POLYLINE
  8
DRD
 66
      1
 70
1
 40
0.0050
 41
0.0050
  0
VERTEX
  8
DRD
 10
1.6965
 20
1.5150
 30
 0.0
 42
1.0
  0
VERTEX
  8
DRD
 10
1.7015
 20
1.5150
 30
 0.0
 42
1.0
  0
SEQEND
  8
DRD
  0
POLYLINE
  8
DRD
 66
      1
 70
1
 40
0.0050
 41
0.0050
  0
VERTEX
  8
DRD
 10
1.6465
 20
1.5150
 30
 0.0
 42
1.0
  0
VERTEX
  8
DRD
 10
1.6515
 20
1.5150
 30
 0.0
 42
1.0
  0
SEQEND
  8
DRD
  0
POLYLINE
  8
DRD
 66
      1
 70
0
 40
0.0100
 41
0.0100
  0
VERTEX
  8
DRD
 10
1.6990
 20
1.5650
 30
 0.0
  0
VERTEX
  8
DRD
 10
1.6990
 20
1.5150
 30
 0.0
  0
SEQEND
  8
DRD
  0
POLYLINE
  8
DRD
 66
      1
 70
1
 40
0.0050
 41
0.0050
  0
VERTEX
  8
DRD
 10
1.6965
 20
1.5650
 30
 0.0
 42
1.0
  0
VERTEX
  8
DRD
 10
1.7015
 20
1.5650
 30
 0.0
 42
1.0
  0
SEQEND
  8
DRD
  0
POLYLINE
  8
DRD
 66
      1
 70
1
 40
0.0050
 41
0.0050
  0
VERTEX
  8
DRD
 10
1.6965
 20
1.5150
 30
 0.0
 42
1.0
  0
VERTEX
  8
DRD
 10
1.7015
 20
1.5150
 30
 0.0
 42
1.0
  0
SEQEND
  8
DRD
  0
POLYLINE
  8
DRD
 66
      1
 70
0
 40
0.0100
 41
0.0100
  0
VERTEX
  8
DRD
 10
1.6490
 20
1.5650
 30
 0.0
  0
VERTEX
  8
DRD
 10
1.6990
 20
1.5650
 30
 0.0
  0
SEQEND
  8
DRD
  0
POLYLINE
  8
DRD
 66
      1
 70
1
 40
0.0050
 41
0.0050
  0
VERTEX
  8
DRD
 10
1.6465
 20
1.5650
 30
 0.0
 42
1.0
  0
VERTEX
  8
DRD
 10
1.6515
 20
1.5650
 30
 0.0
 42
1.0
  0
SEQEND
  8
DRD
  0
POLYLINE
  8
DRD
 66
      1
 70
1
 40
0.0050
 41
0.0050
  0
VERTEX
  8
DRD
 10
1.6965
 20
1.5650
 30
 0.0
 42
1.0
  0
VERTEX
  8
DRD
 10
1.7015
 20
1.5650
 30
 0.0
 42
1.0
  0
SEQEND
  8
DRD
  0
POLYLINE
  8
DRD
 66
      1
 70
0
 40
0.0100
 41
0.0100
  0
VERTEX
  8
DRD
 10
1.6490
 20
1.5150
 30
 0.0
  0
VERTEX
  8
DRD
 10
1.6490
 20
1.5650
 30
 0.0
  0
SEQEND
  8
DRD
  0
POLYLINE
  8
DRD
 66
      1
 70
1
 40
0.0050
 41
0.0050
  0
VERTEX
  8
DRD
 10
1.6465
 20
1.5150
 30
 0.0
 42
1.0
  0
VERTEX
  8
DRD
 10
1.6515
 20
1.5150
 30
 0.0
 42
1.0
  0
SEQEND
  8
DRD
  0
POLYLINE
  8
DRD
 66
      1
 70
1
 40
0.0050
 41
0.0050
  0
VERTEX
  8
DRD
 10
1.6465
 20
1.5650
 30
 0.0
 42
1.0
  0
VERTEX
  8
DRD
 10
1.6515
 20
1.5650
 30
 0.0
 42
1.0
  0
SEQEND
  8
DRD
  0
POLYLINE
  8
DRL
 66
      1
 70
1
 40
0.0170
 41
0.0170
  0
VERTEX
  8
DRL
 10
1.6660
 20
1.5400
 30
 0.0
 42
1.0
  0
VERTEX
  8
DRL
 10
1.6820
 20
1.5400
 30
 0.0
 42
1.0
  0
SEQEND
  8
DRL
  0
POLYLINE
  8
DRD
 66
      1
 70
0
 40
0.0100
 41
0.0100
  0
VERTEX
  8
DRD
 10
1.6490
 20
1.3650
 30
 0.0
  0
VERTEX
  8
DRD
 10
1.6990
 20
1.3150
 30
 0.0
  0
SEQEND
  8
DRD
  0
POLYLINE
  8
DRD
 66
      1
 70
1
 40
0.0050
 41
0.0050
  0
VERTEX
  8
DRD
 10
1.6465
 20
1.3650
 30
 0.0
 42
1.0
  0
VERTEX
  8
DRD
 10
1.6515
 20
1.3650
 30
 0.0
 42
1.0
  0
SEQEND
  8
DRD
  0
POLYLINE
  8
DRD
 66
      1
 70
1
 40
0.0050
 41
0.0050
  0
VERTEX
  8
DRD
 10
1.6965
 20
1.3150
 30
 0.0
 42
1.0
  0
VERTEX
  8
DRD
 10
1.7015
 20
1.3150
 30
 0.0
 42
1.0
  0
SEQEND
  8
DRD
  0
POLYLINE
  8
DRD
 66
      1
 70
0
 40
0.0100
 41
0.0100
  0
VERTEX
  8
DRD
 10
1.6490
 20
1.3150
 30
 0.0
  0
VERTEX
  8
DRD
 10
1.6990
 20
1.3650
 30
 0.0
  0
SEQEND
  8
DRD
  0
POLYLINE
  8
DRD
 66
      1
 70
1
 40
0.0050
 41
0.0050
  0
VERTEX
  8
DRD
 10
1.6465
 20
1.3150
 30
 0.0
 42
1.0
  0
VERTEX
  8
DRD
 10
1.6515
 20
1.3150
 30
 0.0
 42
1.0
  0
SEQEND
  8
DRD
  0
POLYLINE
  8
DRD
 66
      1
 70
1
 40
0.0050
 41
0.0050
  0
VERTEX
  8
DRD
 10
1.6965
 20
1.3650
 30
 0.0
 42
1.0
  0
VERTEX
  8
DRD
 10
1.7015
 20
1.3650
 30
 0.0
 42
1.0
  0
SEQEND
  8
DRD
  0
POLYLINE
  8
DRD
 66
      1
 70
0
 40
0.0100
 41
0.0100
  0
VERTEX
  8
DRD
 10
1.6990
 20
1.3150
 30
 0.0
  0
VERTEX
  8
DRD
 10
1.6490
 20
1.3150
 30
 0.0
  0
SEQEND
  8
DRD
  0
POLYLINE
  8
DRD
 66
      1
 70
1
 40
0.0050
 41
0.0050
  0
VERTEX
  8
DRD
 10
1.6965
 20
1.3150
 30
 0.0
 42
1.0
  0
VERTEX
  8
DRD
 10
1.7015
 20
1.3150
 30
 0.0
 42
1.0
  0
SEQEND
  8
DRD
  0
POLYLINE
  8
DRD
 66
      1
 70
1
 40
0.0050
 41
0.0050
  0
VERTEX
  8
DRD
 10
1.6465
 20
1.3150
 30
 0.0
 42
1.0
  0
VERTEX
  8
DRD
 10
1.6515
 20
1.3150
 30
 0.0
 42
1.0
  0
SEQEND
  8
DRD
  0
POLYLINE
  8
DRD
 66
      1
 70
0
 40
0.0100
 41
0.0100
  0
VERTEX
  8
DRD
 10
1.6990
 20
1.3650
 30
 0.0
  0
VERTEX
  8
DRD
 10
1.6990
 20
1.3150
 30
 0.0
  0
SEQEND
  8
DRD
  0
POLYLINE
  8
DRD
 66
      1
 70
1
 40
0.0050
 41
0.0050
  0
VERTEX
  8
DRD
 10
1.6965
 20
1.3650
 30
 0.0
 42
1.0
  0
VERTEX
  8
DRD
 10
1.7015
 20
1.3650
 30
 0.0
 42
1.0
  0
SEQEND
  8
DRD
  0
POLYLINE
  8
DRD
 66
      1
 70
1
 40
0.0050
 41
0.0050
  0
VERTEX
  8
DRD
 10
1.6965
 20
1.3150
 30
 0.0
 42
1.0
  0
VERTEX
  8
DRD
 10
1.7015
 20
1.3150
 30
 0.0
 42
1.0
  0
SEQEND
  8
DRD
  0
POLYLINE
  8
DRD
 66
      1
 70
0
 40
0.0100
 41
0.0100
  0
VERTEX
  8
DRD
 10
1.6490
 20
1.3650
 30
 0.0
  0
VERTEX
  8
DRD
 10
1.6990
 20
1.3650
 30
 0.0
  0
SEQEND
  8
DRD
  0
POLYLINE
  8
DRD
 66
      1
 70
1
 40
0.0050
 41
0.0050
  0
VERTEX
  8
DRD
 10
1.6465
 20
1.3650
 30
 0.0
 42
1.0
  0
VERTEX
  8
DRD
 10
1.6515
 20
1.3650
 30
 0.0
 42
1.0
  0
SEQEND
  8
DRD
  0
POLYLINE
  8
DRD
 66
      1
 70
1
 40
0.0050
 41
0.0050
  0
VERTEX
  8
DRD
 10
1.6965
 20
1.3650
 30
 0.0
 42
1.0
  0
VERTEX
  8
DRD
 10
1.7015
 20
1.3650
 30
 0.0
 42
1.0
  0
SEQEND
  8
DRD
  0
POLYLINE
  8
DRD
 66
      1
 70
0
 40
0.0100
 41
0.0100
  0
VERTEX
  8
DRD
 10
1.6490
 20
1.3150
 30
 0.0
  0
VERTEX
  8
DRD
 10
1.6490
 20
1.3650
 30
 0.0
  0
SEQEND
  8
DRD
  0
POLYLINE
  8
DRD
 66
      1
 70
1
 40
0.0050
 41
0.0050
  0
VERTEX
  8
DRD
 10
1.6465
 20
1.3150
 30
 0.0
 42
1.0
  0
VERTEX
  8
DRD
 10
1.6515
 20
1.3150
 30
 0.0
 42
1.0
  0
SEQEND
  8
DRD
  0
POLYLINE
  8
DRD
 66
      1
 70
1
 40
0.0050
 41
0.0050
  0
VERTEX
  8
DRD
 10
1.6465
 20
1.3650
 30
 0.0
 42
1.0
  0
VERTEX
  8
DRD
 10
1.6515
 20
1.3650
 30
 0.0
 42
1.0
  0
SEQEND
  8
DRD
  0
POLYLINE
  8
DRL
 66
      1
 70
1
 40
0.0170
 41
0.0170
  0
VERTEX
  8
DRL
 10
1.6660
 20
1.3400
 30
 0.0
 42
1.0
  0
VERTEX
  8
DRL
 10
1.6820
 20
1.3400
 30
 0.0
 42
1.0
  0
SEQEND
  8
DRL
  0
POLYLINE
  8
DRD
 66
      1
 70
0
 40
0.0100
 41
0.0100
  0
VERTEX
  8
DRD
 10
2.0740
 20
1.5550
 30
 0.0
  0
VERTEX
  8
DRD
 10
2.1240
 20
1.5050
 30
 0.0
  0
SEQEND
  8
DRD
  0
POLYLINE
  8
DRD
 66
      1
 70
1
 40
0.0050
 41
0.0050
  0
VERTEX
  8
DRD
 10
2.0715
 20
1.5550
 30
 0.0
 42
1.0
  0
VERTEX
  8
DRD
 10
2.0765
 20
1.5550
 30
 0.0
 42
1.0
  0
SEQEND
  8
DRD
  0
POLYLINE
  8
DRD
 66
      1
 70
1
 40
0.0050
 41
0.0050
  0
VERTEX
  8
DRD
 10
2.1215
 20
1.5050
 30
 0.0
 42
1.0
  0
VERTEX
  8
DRD
 10
2.1265
 20
1.5050
 30
 0.0
 42
1.0
  0
SEQEND
  8
DRD
  0
POLYLINE
  8
DRD
 66
      1
 70
0
 40
0.0100
 41
0.0100
  0
VERTEX
  8
DRD
 10
2.0740
 20
1.5050
 30
 0.0
  0
VERTEX
  8
DRD
 10
2.1240
 20
1.5550
 30
 0.0
  0
SEQEND
  8
DRD
  0
POLYLINE
  8
DRD
 66
      1
 70
1
 40
0.0050
 41
0.0050
  0
VERTEX
  8
DRD
 10
2.0715
 20
1.5050
 30
 0.0
 42
1.0
  0
VERTEX
  8
DRD
 10
2.0765
 20
1.5050
 30
 0.0
 42
1.0
  0
SEQEND
  8
DRD
  0
POLYLINE
  8
DRD
 66
      1
 70
1
 40
0.0050
 41
0.0050
  0
VERTEX
  8
DRD
 10
2.1215
 20
1.5550
 30
 0.0
 42
1.0
  0
VERTEX
  8
DRD
 10
2.1265
 20
1.5550
 30
 0.0
 42
1.0
  0
SEQEND
  8
DRD
  0
POLYLINE
  8
DRD
 66
      1
 70
0
 40
0.0100
 41
0.0100
  0
VERTEX
  8
DRD
 10
2.1240
 20
1.5050
 30
 0.0
  0
VERTEX
  8
DRD
 10
2.0740
 20
1.5050
 30
 0.0
  0
SEQEND
  8
DRD
  0
POLYLINE
  8
DRD
 66
      1
 70
1
 40
0.0050
 41
0.0050
  0
VERTEX
  8
DRD
 10
2.1215
 20
1.5050
 30
 0.0
 42
1.0
  0
VERTEX
  8
DRD
 10
2.1265
 20
1.5050
 30
 0.0
 42
1.0
  0
SEQEND
  8
DRD
  0
POLYLINE
  8
DRD
 66
      1
 70
1
 40
0.0050
 41
0.0050
  0
VERTEX
  8
DRD
 10
2.0715
 20
1.5050
 30
 0.0
 42
1.0
  0
VERTEX
  8
DRD
 10
2.0765
 20
1.5050
 30
 0.0
 42
1.0
  0
SEQEND
  8
DRD
  0
POLYLINE
  8
DRD
 66
      1
 70
0
 40
0.0100
 41
0.0100
  0
VERTEX
  8
DRD
 10
2.1240
 20
1.5550
 30
 0.0
  0
VERTEX
  8
DRD
 10
2.1240
 20
1.5050
 30
 0.0
  0
SEQEND
  8
DRD
  0
POLYLINE
  8
DRD
 66
      1
 70
1
 40
0.0050
 41
0.0050
  0
VERTEX
  8
DRD
 10
2.1215
 20
1.5550
 30
 0.0
 42
1.0
  0
VERTEX
  8
DRD
 10
2.1265
 20
1.5550
 30
 0.0
 42
1.0
  0
SEQEND
  8
DRD
  0
POLYLINE
  8
DRD
 66
      1
 70
1
 40
0.0050
 41
0.0050
  0
VERTEX
  8
DRD
 10
2.1215
 20
1.5050
 30
 0.0
 42
1.0
  0
VERTEX
  8
DRD
 10
2.1265
 20
1.5050
 30
 0.0
 42
1.0
  0
SEQEND
  8
DRD
  0
POLYLINE
  8
DRD
 66
      1
 70
0
 40
0.0100
 41
0.0100
  0
VERTEX
  8
DRD
 10
2.0740
 20
1.5550
 30
 0.0
  0
VERTEX
  8
DRD
 10
2.1240
 20
1.5550
 30
 0.0
  0
SEQEND
  8
DRD
  0
POLYLINE
  8
DRD
 66
      1
 70
1
 40
0.0050
 41
0.0050
  0
VERTEX
  8
DRD
 10
2.0715
 20
1.5550
 30
 0.0
 42
1.0
  0
VERTEX
  8
DRD
 10
2.0765
 20
1.5550
 30
 0.0
 42
1.0
  0
SEQEND
  8
DRD
  0
POLYLINE
  8
DRD
 66
      1
 70
1
 40
0.0050
 41
0.0050
  0
VERTEX
  8
DRD
 10
2.1215
 20
1.5550
 30
 0.0
 42
1.0
  0
VERTEX
  8
DRD
 10
2.1265
 20
1.5550
 30
 0.0
 42
1.0
  0
SEQEND
  8
DRD
  0
POLYLINE
  8
DRD
 66
      1
 70
0
 40
0.0100
 41
0.0100
  0
VERTEX
  8
DRD
 10
2.0740
 20
1.5050
 30
 0.0
  0
VERTEX
  8
DRD
 10
2.0740
 20
1.5550
 30
 0.0
  0
SEQEND
  8
DRD
  0
POLYLINE
  8
DRD
 66
      1
 70
1
 40
0.0050
 41
0.0050
  0
VERTEX
  8
DRD
 10
2.0715
 20
1.5050
 30
 0.0
 42
1.0
  0
VERTEX
  8
DRD
 10
2.0765
 20
1.5050
 30
 0.0
 42
1.0
  0
SEQEND
  8
DRD
  0
POLYLINE
  8
DRD
 66
      1
 70
1
 40
0.0050
 41
0.0050
  0
VERTEX
  8
DRD
 10
2.0715
 20
1.5550
 30
 0.0
 42
1.0
  0
VERTEX
  8
DRD
 10
2.0765
 20
1.5550
 30
 0.0
 42
1.0
  0
SEQEND
  8
DRD
  0
POLYLINE
  8
DRL
 66
      1
 70
1
 40
0.0170
 41
0.0170
  0
VERTEX
  8
DRL
 10
2.0910
 20
1.5300
 30
 0.0
 42
1.0
  0
VERTEX
  8
DRL
 10
2.1070
 20
1.5300
 30
 0.0
 42
1.0
  0
SEQEND
  8
DRL
  0
POLYLINE
  8
DRD
 66
      1
 70
0
 40
0.0100
 41
0.0100
  0
VERTEX
  8
DRD
 10
2.0740
 20
1.3550
 30
 0.0
  0
VERTEX
  8
DRD
 10
2.1240
 20
1.3050
 30
 0.0
  0
SEQEND
  8
DRD
  0
POLYLINE
  8
DRD
 66
      1
 70
1
 40
0.0050
 41
0.0050
  0
VERTEX
  8
DRD
 10
2.0715
 20
1.3550
 30
 0.0
 42
1.0
  0
VERTEX
  8
DRD
 10
2.0765
 20
1.3550
 30
 0.0
 42
1.0
  0
SEQEND
  8
DRD
  0
POLYLINE
  8
DRD
 66
      1
 70
1
 40
0.0050
 41
0.0050
  0
VERTEX
  8
DRD
 10
2.1215
 20
1.3050
 30
 0.0
 42
1.0
  0
VERTEX
  8
DRD
 10
2.1265
 20
1.3050
 30
 0.0
 42
1.0
  0
SEQEND
  8
DRD
  0
POLYLINE
  8
DRD
 66
      1
 70
0
 40
0.0100
 41
0.0100
  0
VERTEX
  8
DRD
 10
2.0740
 20
1.3050
 30
 0.0
  0
VERTEX
  8
DRD
 10
2.1240
 20
1.3550
 30
 0.0
  0
SEQEND
  8
DRD
  0
POLYLINE
  8
DRD
 66
      1
 70
1
 40
0.0050
 41
0.0050
  0
VERTEX
  8
DRD
 10
2.0715
 20
1.3050
 30
 0.0
 42
1.0
  0
VERTEX
  8
DRD
 10
2.0765
 20
1.3050
 30
 0.0
 42
1.0
  0
SEQEND
  8
DRD
  0
POLYLINE
  8
DRD
 66
      1
 70
1
 40
0.0050
 41
0.0050
  0
VERTEX
  8
DRD
 10
2.1215
 20
1.3550
 30
 0.0
 42
1.0
  0
VERTEX
  8
DRD
 10
2.1265
 20
1.3550
 30
 0.0
 42
1.0
  0
SEQEND
  8
DRD
  0
POLYLINE
  8
DRD
 66
      1
 70
0
 40
0.0100
 41
0.0100
  0
VERTEX
  8
DRD
 10
2.1240
 20
1.3050
 30
 0.0
  0
VERTEX
  8
DRD
 10
2.0740
 20
1.3050
 30
 0.0
  0
SEQEND
  8
DRD
  0
POLYLINE
  8
DRD
 66
      1
 70
1
 40
0.0050
 41
0.0050
  0
VERTEX
  8
DRD
 10
2.1215
 20
1.3050
 30
 0.0
 42
1.0
  0
VERTEX
  8
DRD
 10
2.1265
 20
1.3050
 30
 0.0
 42
1.0
  0
SEQEND
  8
DRD
  0
POLYLINE
  8
DRD
 66
      1
 70
1
 40
0.0050
 41
0.0050
  0
VERTEX
  8
DRD
 10
2.0715
 20
1.3050
 30
 0.0
 42
1.0
  0
VERTEX
  8
DRD
 10
2.0765
 20
1.3050
 30
 0.0
 42
1.0
  0
SEQEND
  8
DRD
  0
POLYLINE
  8
DRD
 66
      1
 70
0
 40
0.0100
 41
0.0100
  0
VERTEX
  8
DRD
 10
2.1240
 20
1.3550
 30
 0.0
  0
VERTEX
  8
DRD
 10
2.1240
 20
1.3050
 30
 0.0
  0
SEQEND
  8
DRD
  0
POLYLINE
  8
DRD
 66
      1
 70
1
 40
0.0050
 41
0.0050
  0
VERTEX
  8
DRD
 10
2.1215
 20
1.3550
 30
 0.0
 42
1.0
  0
VERTEX
  8
DRD
 10
2.1265
 20
1.3550
 30
 0.0
 42
1.0
  0
SEQEND
  8
DRD
  0
POLYLINE
  8
DRD
 66
      1
 70
1
 40
0.0050
 41
0.0050
  0
VERTEX
  8
DRD
 10
2.1215
 20
1.3050
 30
 0.0
 42
1.0
  0
VERTEX
  8
DRD
 10
2.1265
 20
1.3050
 30
 0.0
 42
1.0
  0
SEQEND
  8
DRD
  0
POLYLINE
  8
DRD
 66
      1
 70
0
 40
0.0100
 41
0.0100
  0
VERTEX
  8
DRD
 10
2.0740
 20
1.3550
 30
 0.0
  0
VERTEX
  8
DRD
 10
2.1240
 20
1.3550
 30
 0.0
  0
SEQEND
  8
DRD
  0
POLYLINE
  8
DRD
 66
      1
 70
1
 40
0.0050
 41
0.0050
  0
VERTEX
  8
DRD
 10
2.0715
 20
1.3550
 30
 0.0
 42
1.0
  0
VERTEX
  8
DRD
 10
2.0765
 20
1.3550
 30
 0.0
 42
1.0
  0
SEQEND
  8
DRD
  0
POLYLINE
  8
DRD
 66
      1
 70
1
 40
0.0050
 41
0.0050
  0
VERTEX
  8
DRD
 10
2.1215
 20
1.3550
 30
 0.0
 42
1.0
  0
VERTEX
  8
DRD
 10
2.1265
 20
1.3550
 30
 0.0
 42
1.0
  0
SEQEND
  8
DRD
  0
POLYLINE
  8
DRD
 66
      1
 70
0
 40
0.0100
 41
0.0100
  0
VERTEX
  8
DRD
 10
2.0740
 20
1.3050
 30
 0.0
  0
VERTEX
  8
DRD
 10
2.0740
 20
1.3550
 30
 0.0
  0
SEQEND
  8
DRD
  0
POLYLINE
  8
DRD
 66
      1
 70
1
 40
0.0050
 41
0.0050
  0
VERTEX
  8
DRD
 10
2.0715
 20
1.3050
 30
 0.0
 42
1.0
  0
VERTEX
  8
DRD
 10
2.0765
 20
1.3050
 30
 0.0
 42
1.0
  0
SEQEND
  8
DRD
  0
POLYLINE
  8
DRD
 66
      1
 70
1
 40
0.0050
 41
0.0050
  0
VERTEX
  8
DRD
 10
2.0715
 20
1.3550
 30
 0.0
 42
1.0
  0
VERTEX
  8
DRD
 10
2.0765
 20
1.3550
 30
 0.0
 42
1.0
  0
SEQEND
  8
DRD
  0
POLYLINE
  8
DRL
 66
      1
 70
1
 40
0.0170
 41
0.0170
  0
VERTEX
  8
DRL
 10
2.0910
 20
1.3300
 30
 0.0
 42
1.0
  0
VERTEX
  8
DRL
 10
2.1070
 20
1.3300
 30
 0.0
 42
1.0
  0
SEQEND
  8
DRL
  0
POLYLINE
  8
DRD
 66
      1
 70
0
 40
0.0100
 41
0.0100
  0
VERTEX
  8
DRD
 10
0.3830
 20
1.2870
 30
 0.0
  0
VERTEX
  8
DRD
 10
0.3830
 20
1.3370
 30
 0.0
  0
SEQEND
  8
DRD
  0
POLYLINE
  8
DRD
 66
      1
 70
1
 40
0.0050
 41
0.0050
  0
VERTEX
  8
DRD
 10
0.3805
 20
1.2870
 30
 0.0
 42
1.0
  0
VERTEX
  8
DRD
 10
0.3855
 20
1.2870
 30
 0.0
 42
1.0
  0
SEQEND
  8
DRD
  0
POLYLINE
  8
DRD
 66
      1
 70
1
 40
0.0050
 41
0.0050
  0
VERTEX
  8
DRD
 10
0.3805
 20
1.3370
 30
 0.0
 42
1.0
  0
VERTEX
  8
DRD
 10
0.3855
 20
1.3370
 30
 0.0
 42
1.0
  0
SEQEND
  8
DRD
  0
POLYLINE
  8
DRD
 66
      1
 70
0
 40
0.0100
 41
0.0100
  0
VERTEX
  8
DRD
 10
0.3580
 20
1.3120
 30
 0.0
  0
VERTEX
  8
DRD
 10
0.4080
 20
1.3120
 30
 0.0
  0
SEQEND
  8
DRD
  0
POLYLINE
  8
DRD
 66
      1
 70
1
 40
0.0050
 41
0.0050
  0
VERTEX
  8
DRD
 10
0.3555
 20
1.3120
 30
 0.0
 42
1.0
  0
VERTEX
  8
DRD
 10
0.3605
 20
1.3120
 30
 0.0
 42
1.0
  0
SEQEND
  8
DRD
  0
POLYLINE
  8
DRD
 66
      1
 70
1
 40
0.0050
 41
0.0050
  0
VERTEX
  8
DRD
 10
0.4055
 20
1.3120
 30
 0.0
 42
1.0
  0
VERTEX
  8
DRD
 10
0.4105
 20
1.3120
 30
 0.0
 42
1.0
  0
SEQEND
  8
DRD
  0
POLYLINE
  8
DRL
 66
      1
 70
1
 40
0.0290
 41
0.0290
  0
VERTEX
  8
DRL
 10
0.3690
 20
1.3120
 30
 0.0
 42
1.0
  0
VERTEX
  8
DRL
 10
0.3970
 20
1.3120
 30
 0.0
 42
1.0
  0
SEQEND
  8
DRL
  0
POLYLINE
  8
DRD
 66
      1
 70
0
 40
0.0100
 41
0.0100
  0
VERTEX
  8
DRD
 10
0.5830
 20
1.2870
 30
 0.0
  0
VERTEX
  8
DRD
 10
0.5830
 20
1.3370
 30
 0.0
  0
SEQEND
  8
DRD
  0
POLYLINE
  8
DRD
 66
      1
 70
1
 40
0.0050
 41
0.0050
  0
VERTEX
  8
DRD
 10
0.5805
 20
1.2870
 30
 0.0
 42
1.0
  0
VERTEX
  8
DRD
 10
0.5855
 20
1.2870
 30
 0.0
 42
1.0
  0
SEQEND
  8
DRD
  0
POLYLINE
  8
DRD
 66
      1
 70
1
 40
0.0050
 41
0.0050
  0
VERTEX
  8
DRD
 10
0.5805
 20
1.3370
 30
 0.0
 42
1.0
  0
VERTEX
  8
DRD
 10
0.5855
 20
1.3370
 30
 0.0
 42
1.0
  0
SEQEND
  8
DRD
  0
POLYLINE
  8
DRD
 66
      1
 70
0
 40
0.0100
 41
0.0100
  0
VERTEX
  8
DRD
 10
0.5580
 20
1.3120
 30
 0.0
  0
VERTEX
  8
DRD
 10
0.6080
 20
1.3120
 30
 0.0
  0
SEQEND
  8
DRD
  0
POLYLINE
  8
DRD
 66
      1
 70
1
 40
0.0050
 41
0.0050
  0
VERTEX
  8
DRD
 10
0.5555
 20
1.3120
 30
 0.0
 42
1.0
  0
VERTEX
  8
DRD
 10
0.5605
 20
1.3120
 30
 0.0
 42
1.0
  0
SEQEND
  8
DRD
  0
POLYLINE
  8
DRD
 66
      1
 70
1
 40
0.0050
 41
0.0050
  0
VERTEX
  8
DRD
 10
0.6055
 20
1.3120
 30
 0.0
 42
1.0
  0
VERTEX
  8
DRD
 10
0.6105
 20
1.3120
 30
 0.0
 42
1.0
  0
SEQEND
  8
DRD
  0
POLYLINE
  8
DRL
 66
      1
 70
1
 40
0.0290
 41
0.0290
  0
VERTEX
  8
DRL
 10
0.5690
 20
1.3120
 30
 0.0
 42
1.0
  0
VERTEX
  8
DRL
 10
0.5970
 20
1.3120
 30
 0.0
 42
1.0
  0
SEQEND
  8
DRL
  0
POLYLINE
  8
DRD
 66
      1
 70
0
 40
0.0100
 41
0.0100
  0
VERTEX
  8
DRD
 10
0.3830
 20
1.0670
 30
 0.0
  0
VERTEX
  8
DRD
 10
0.3830
 20
1.1170
 30
 0.0
  0
SEQEND
  8
DRD
  0
POLYLINE
  8
DRD
 66
      1
 70
1
 40
0.0050
 41
0.0050
  0
VERTEX
  8
DRD
 10
0.3805
 20
1.0670
 30
 0.0
 42
1.0
  0
VERTEX
  8
DRD
 10
0.3855
 20
1.0670
 30
 0.0
 42
1.0
  0
SEQEND
  8
DRD
  0
POLYLINE
  8
DRD
 66
      1
 70
1
 40
0.0050
 41
0.0050
  0
VERTEX
  8
DRD
 10
0.3805
 20
1.1170
 30
 0.0
 42
1.0
  0
VERTEX
  8
DRD
 10
0.3855
 20
1.1170
 30
 0.0
 42
1.0
  0
SEQEND
  8
DRD
  0
POLYLINE
  8
DRD
 66
      1
 70
0
 40
0.0100
 41
0.0100
  0
VERTEX
  8
DRD
 10
0.3580
 20
1.0920
 30
 0.0
  0
VERTEX
  8
DRD
 10
0.4080
 20
1.0920
 30
 0.0
  0
SEQEND
  8
DRD
  0
POLYLINE
  8
DRD
 66
      1
 70
1
 40
0.0050
 41
0.0050
  0
VERTEX
  8
DRD
 10
0.3555
 20
1.0920
 30
 0.0
 42
1.0
  0
VERTEX
  8
DRD
 10
0.3605
 20
1.0920
 30
 0.0
 42
1.0
  0
SEQEND
  8
DRD
  0
POLYLINE
  8
DRD
 66
      1
 70
1
 40
0.0050
 41
0.0050
  0
VERTEX
  8
DRD
 10
0.4055
 20
1.0920
 30
 0.0
 42
1.0
  0
VERTEX
  8
DRD
 10
0.4105
 20
1.0920
 30
 0.0
 42
1.0
  0
SEQEND
  8
DRD
  0
POLYLINE
  8
DRL
 66
      1
 70
1
 40
0.0290
 41
0.0290
  0
VERTEX
  8
DRL
 10
0.3690
 20
1.0920
 30
 0.0
 42
1.0
  0
VERTEX
  8
DRL
 10
0.3970
 20
1.0920
 30
 0.0
 42
1.0
  0
SEQEND
  8
DRL
  0
POLYLINE
  8
DRD
 66
      1
 70
0
 40
0.0100
 41
0.0100
  0
VERTEX
  8
DRD
 10
0.5830
 20
1.0670
 30
 0.0
  0
VERTEX
  8
DRD
 10
0.5830
 20
1.1170
 30
 0.0
  0
SEQEND
  8
DRD
  0
POLYLINE
  8
DRD
 66
      1
 70
1
 40
0.0050
 41
0.0050
  0
VERTEX
  8
DRD
 10
0.5805
 20
1.0670
 30
 0.0
 42
1.0
  0
VERTEX
  8
DRD
 10
0.5855
 20
1.0670
 30
 0.0
 42
1.0
  0
SEQEND
  8
DRD
  0
POLYLINE
  8
DRD
 66
      1
 70
1
 40
0.0050
 41
0.0050
  0
VERTEX
  8
DRD
 10
0.5805
 20
1.1170
 30
 0.0
 42
1.0
  0
VERTEX
  8
DRD
 10
0.5855
 20
1.1170
 30
 0.0
 42
1.0
  0
SEQEND
  8
DRD
  0
POLYLINE
  8
DRD
 66
      1
 70
0
 40
0.0100
 41
0.0100
  0
VERTEX
  8
DRD
 10
0.5580
 20
1.0920
 30
 0.0
  0
VERTEX
  8
DRD
 10
0.6080
 20
1.0920
 30
 0.0
  0
SEQEND
  8
DRD
  0
POLYLINE
  8
DRD
 66
      1
 70
1
 40
0.0050
 41
0.0050
  0
VERTEX
  8
DRD
 10
0.5555
 20
1.0920
 30
 0.0
 42
1.0
  0
VERTEX
  8
DRD
 10
0.5605
 20
1.0920
 30
 0.0
 42
1.0
  0
SEQEND
  8
DRD
  0
POLYLINE
  8
DRD
 66
      1
 70
1
 40
0.0050
 41
0.0050
  0
VERTEX
  8
DRD
 10
0.6055
 20
1.0920
 30
 0.0
 42
1.0
  0
VERTEX
  8
DRD
 10
0.6105
 20
1.0920
 30
 0.0
 42
1.0
  0
SEQEND
  8
DRD
  0
POLYLINE
  8
DRL
 66
      1
 70
1
 40
0.0290
 41
0.0290
  0
VERTEX
  8
DRL
 10
0.5690
 20
1.0920
 30
 0.0
 42
1.0
  0
VERTEX
  8
DRL
 10
0.5970
 20
1.0920
 30
 0.0
 42
1.0
  0
SEQEND
  8
DRL
  0
POLYLINE
  8
DRD
 66
      1
 70
0
 40
0.0100
 41
0.0100
  0
VERTEX
  8
DRD
 10
0.3820
 20
0.6250
 30
 0.0
  0
VERTEX
  8
DRD
 10
0.3820
 20
0.6750
 30
 0.0
  0
SEQEND
  8
DRD
  0
POLYLINE
  8
DRD
 66
      1
 70
1
 40
0.0050
 41
0.0050
  0
VERTEX
  8
DRD
 10
0.3795
 20
0.6250
 30
 0.0
 42
1.0
  0
VERTEX
  8
DRD
 10
0.3845
 20
0.6250
 30
 0.0
 42
1.0
  0
SEQEND
  8
DRD
  0
POLYLINE
  8
DRD
 66
      1
 70
1
 40
0.0050
 41
0.0050
  0
VERTEX
  8
DRD
 10
0.3795
 20
0.6750
 30
 0.0
 42
1.0
  0
VERTEX
  8
DRD
 10
0.3845
 20
0.6750
 30
 0.0
 42
1.0
  0
SEQEND
  8
DRD
  0
POLYLINE
  8
DRD
 66
      1
 70
0
 40
0.0100
 41
0.0100
  0
VERTEX
  8
DRD
 10
0.3570
 20
0.6500
 30
 0.0
  0
VERTEX
  8
DRD
 10
0.4070
 20
0.6500
 30
 0.0
  0
SEQEND
  8
DRD
  0
POLYLINE
  8
DRD
 66
      1
 70
1
 40
0.0050
 41
0.0050
  0
VERTEX
  8
DRD
 10
0.3545
 20
0.6500
 30
 0.0
 42
1.0
  0
VERTEX
  8
DRD
 10
0.3595
 20
0.6500
 30
 0.0
 42
1.0
  0
SEQEND
  8
DRD
  0
POLYLINE
  8
DRD
 66
      1
 70
1
 40
0.0050
 41
0.0050
  0
VERTEX
  8
DRD
 10
0.4045
 20
0.6500
 30
 0.0
 42
1.0
  0
VERTEX
  8
DRD
 10
0.4095
 20
0.6500
 30
 0.0
 42
1.0
  0
SEQEND
  8
DRD
  0
POLYLINE
  8
DRL
 66
      1
 70
1
 40
0.0290
 41
0.0290
  0
VERTEX
  8
DRL
 10
0.3680
 20
0.6500
 30
 0.0
 42
1.0
  0
VERTEX
  8
DRL
 10
0.3960
 20
0.6500
 30
 0.0
 42
1.0
  0
SEQEND
  8
DRL
  0
POLYLINE
  8
DRD
 66
      1
 70
0
 40
0.0100
 41
0.0100
  0
VERTEX
  8
DRD
 10
0.5820
 20
0.6250
 30
 0.0
  0
VERTEX
  8
DRD
 10
0.5820
 20
0.6750
 30
 0.0
  0
SEQEND
  8
DRD
  0
POLYLINE
  8
DRD
 66
      1
 70
1
 40
0.0050
 41
0.0050
  0
VERTEX
  8
DRD
 10
0.5795
 20
0.6250
 30
 0.0
 42
1.0
  0
VERTEX
  8
DRD
 10
0.5845
 20
0.6250
 30
 0.0
 42
1.0
  0
SEQEND
  8
DRD
  0
POLYLINE
  8
DRD
 66
      1
 70
1
 40
0.0050
 41
0.0050
  0
VERTEX
  8
DRD
 10
0.5795
 20
0.6750
 30
 0.0
 42
1.0
  0
VERTEX
  8
DRD
 10
0.5845
 20
0.6750
 30
 0.0
 42
1.0
  0
SEQEND
  8
DRD
  0
POLYLINE
  8
DRD
 66
      1
 70
0
 40
0.0100
 41
0.0100
  0
VERTEX
  8
DRD
 10
0.5570
 20
0.6500
 30
 0.0
  0
VERTEX
  8
DRD
 10
0.6070
 20
0.6500
 30
 0.0
  0
SEQEND
  8
DRD
  0
POLYLINE
  8
DRD
 66
      1
 70
1
 40
0.0050
 41
0.0050
  0
VERTEX
  8
DRD
 10
0.5545
 20
0.6500
 30
 0.0
 42
1.0
  0
VERTEX
  8
DRD
 10
0.5595
 20
0.6500
 30
 0.0
 42
1.0
  0
SEQEND
  8
DRD
  0
POLYLINE
  8
DRD
 66
      1
 70
1
 40
0.0050
 41
0.0050
  0
VERTEX
  8
DRD
 10
0.6045
 20
0.6500
 30
 0.0
 42
1.0
  0
VERTEX
  8
DRD
 10
0.6095
 20
0.6500
 30
 0.0
 42
1.0
  0
SEQEND
  8
DRD
  0
POLYLINE
  8
DRL
 66
      1
 70
1
 40
0.0290
 41
0.0290
  0
VERTEX
  8
DRL
 10
0.5680
 20
0.6500
 30
 0.0
 42
1.0
  0
VERTEX
  8
DRL
 10
0.5960
 20
0.6500
 30
 0.0
 42
1.0
  0
SEQEND
  8
DRL
  0
POLYLINE
  8
DRD
 66
      1
 70
0
 40
0.0100
 41
0.0100
  0
VERTEX
  8
DRD
 10
0.3820
 20
0.8470
 30
 0.0
  0
VERTEX
  8
DRD
 10
0.3820
 20
0.8970
 30
 0.0
  0
SEQEND
  8
DRD
  0
POLYLINE
  8
DRD
 66
      1
 70
1
 40
0.0050
 41
0.0050
  0
VERTEX
  8
DRD
 10
0.3795
 20
0.8470
 30
 0.0
 42
1.0
  0
VERTEX
  8
DRD
 10
0.3845
 20
0.8470
 30
 0.0
 42
1.0
  0
SEQEND
  8
DRD
  0
POLYLINE
  8
DRD
 66
      1
 70
1
 40
0.0050
 41
0.0050
  0
VERTEX
  8
DRD
 10
0.3795
 20
0.8970
 30
 0.0
 42
1.0
  0
VERTEX
  8
DRD
 10
0.3845
 20
0.8970
 30
 0.0
 42
1.0
  0
SEQEND
  8
DRD
  0
POLYLINE
  8
DRD
 66
      1
 70
0
 40
0.0100
 41
0.0100
  0
VERTEX
  8
DRD
 10
0.3570
 20
0.8720
 30
 0.0
  0
VERTEX
  8
DRD
 10
0.4070
 20
0.8720
 30
 0.0
  0
SEQEND
  8
DRD
  0
POLYLINE
  8
DRD
 66
      1
 70
1
 40
0.0050
 41
0.0050
  0
VERTEX
  8
DRD
 10
0.3545
 20
0.8720
 30
 0.0
 42
1.0
  0
VERTEX
  8
DRD
 10
0.3595
 20
0.8720
 30
 0.0
 42
1.0
  0
SEQEND
  8
DRD
  0
POLYLINE
  8
DRD
 66
      1
 70
1
 40
0.0050
 41
0.0050
  0
VERTEX
  8
DRD
 10
0.4045
 20
0.8720
 30
 0.0
 42
1.0
  0
VERTEX
  8
DRD
 10
0.4095
 20
0.8720
 30
 0.0
 42
1.0
  0
SEQEND
  8
DRD
  0
POLYLINE
  8
DRL
 66
      1
 70
1
 40
0.0290
 41
0.0290
  0
VERTEX
  8
DRL
 10
0.3680
 20
0.8720
 30
 0.0
 42
1.0
  0
VERTEX
  8
DRL
 10
0.3960
 20
0.8720
 30
 0.0
 42
1.0
  0
SEQEND
  8
DRL
  0
POLYLINE
  8
DRD
 66
      1
 70
0
 40
0.0100
 41
0.0100
  0
VERTEX
  8
DRD
 10
0.5820
 20
0.8470
 30
 0.0
  0
VERTEX
  8
DRD
 10
0.5820
 20
0.8970
 30
 0.0
  0
SEQEND
  8
DRD
  0
POLYLINE
  8
DRD
 66
      1
 70
1
 40
0.0050
 41
0.0050
  0
VERTEX
  8
DRD
 10
0.5795
 20
0.8470
 30
 0.0
 42
1.0
  0
VERTEX
  8
DRD
 10
0.5845
 20
0.8470
 30
 0.0
 42
1.0
  0
SEQEND
  8
DRD
  0
POLYLINE
  8
DRD
 66
      1
 70
1
 40
0.0050
 41
0.0050
  0
VERTEX
  8
DRD
 10
0.5795
 20
0.8970
 30
 0.0
 42
1.0
  0
VERTEX
  8
DRD
 10
0.5845
 20
0.8970
 30
 0.0
 42
1.0
  0
SEQEND
  8
DRD
  0
POLYLINE
  8
DRD
 66
      1
 70
0
 40
0.0100
 41
0.0100
  0
VERTEX
  8
DRD
 10
0.5570
 20
0.8720
 30
 0.0
  0
VERTEX
  8
DRD
 10
0.6070
 20
0.8720
 30
 0.0
  0
SEQEND
  8
DRD
  0
POLYLINE
  8
DRD
 66
      1
 70
1
 40
0.0050
 41
0.0050
  0
VERTEX
  8
DRD
 10
0.5545
 20
0.8720
 30
 0.0
 42
1.0
  0
VERTEX
  8
DRD
 10
0.5595
 20
0.8720
 30
 0.0
 42
1.0
  0
SEQEND
  8
DRD
  0
POLYLINE
  8
DRD
 66
      1
 70
1
 40
0.0050
 41
0.0050
  0
VERTEX
  8
DRD
 10
0.6045
 20
0.8720
 30
 0.0
 42
1.0
  0
VERTEX
  8
DRD
 10
0.6095
 20
0.8720
 30
 0.0
 42
1.0
  0
SEQEND
  8
DRD
  0
POLYLINE
  8
DRL
 66
      1
 70
1
 40
0.0290
 41
0.0290
  0
VERTEX
  8
DRL
 10
0.5680
 20
0.8720
 30
 0.0
 42
1.0
  0
VERTEX
  8
DRL
 10
0.5960
 20
0.8720
 30
 0.0
 42
1.0
  0
SEQEND
  8
DRL
  0
POLYLINE
  8
DRD
 66
      1
 70
0
 40
0.0100
 41
0.0100
  0
VERTEX
  8
DRD
 10
2.3180
 20
0.9730
 30
 0.0
  0
VERTEX
  8
DRD
 10
2.3180
 20
1.0230
 30
 0.0
  0
SEQEND
  8
DRD
  0
POLYLINE
  8
DRD
 66
      1
 70
1
 40
0.0050
 41
0.0050
  0
VERTEX
  8
DRD
 10
2.3155
 20
0.9730
 30
 0.0
 42
1.0
  0
VERTEX
  8
DRD
 10
2.3205
 20
0.9730
 30
 0.0
 42
1.0
  0
SEQEND
  8
DRD
  0
POLYLINE
  8
DRD
 66
      1
 70
1
 40
0.0050
 41
0.0050
  0
VERTEX
  8
DRD
 10
2.3155
 20
1.0230
 30
 0.0
 42
1.0
  0
VERTEX
  8
DRD
 10
2.3205
 20
1.0230
 30
 0.0
 42
1.0
  0
SEQEND
  8
DRD
  0
POLYLINE
  8
DRD
 66
      1
 70
0
 40
0.0100
 41
0.0100
  0
VERTEX
  8
DRD
 10
2.2930
 20
0.9980
 30
 0.0
  0
VERTEX
  8
DRD
 10
2.3430
 20
0.9980
 30
 0.0
  0
SEQEND
  8
DRD
  0
POLYLINE
  8
DRD
 66
      1
 70
1
 40
0.0050
 41
0.0050
  0
VERTEX
  8
DRD
 10
2.2905
 20
0.9980
 30
 0.0
 42
1.0
  0
VERTEX
  8
DRD
 10
2.2955
 20
0.9980
 30
 0.0
 42
1.0
  0
SEQEND
  8
DRD
  0
POLYLINE
  8
DRD
 66
      1
 70
1
 40
0.0050
 41
0.0050
  0
VERTEX
  8
DRD
 10
2.3405
 20
0.9980
 30
 0.0
 42
1.0
  0
VERTEX
  8
DRD
 10
2.3455
 20
0.9980
 30
 0.0
 42
1.0
  0
SEQEND
  8
DRD
  0
POLYLINE
  8
DRL
 66
      1
 70
1
 40
0.0290
 41
0.0290
  0
VERTEX
  8
DRL
 10
2.3040
 20
0.9980
 30
 0.0
 42
1.0
  0
VERTEX
  8
DRL
 10
2.3320
 20
0.9980
 30
 0.0
 42
1.0
  0
SEQEND
  8
DRL
  0
POLYLINE
  8
DRD
 66
      1
 70
0
 40
0.0100
 41
0.0100
  0
VERTEX
  8
DRD
 10
2.5180
 20
0.9730
 30
 0.0
  0
VERTEX
  8
DRD
 10
2.5180
 20
1.0230
 30
 0.0
  0
SEQEND
  8
DRD
  0
POLYLINE
  8
DRD
 66
      1
 70
1
 40
0.0050
 41
0.0050
  0
VERTEX
  8
DRD
 10
2.5155
 20
0.9730
 30
 0.0
 42
1.0
  0
VERTEX
  8
DRD
 10
2.5205
 20
0.9730
 30
 0.0
 42
1.0
  0
SEQEND
  8
DRD
  0
POLYLINE
  8
DRD
 66
      1
 70
1
 40
0.0050
 41
0.0050
  0
VERTEX
  8
DRD
 10
2.5155
 20
1.0230
 30
 0.0
 42
1.0
  0
VERTEX
  8
DRD
 10
2.5205
 20
1.0230
 30
 0.0
 42
1.0
  0
SEQEND
  8
DRD
  0
POLYLINE
  8
DRD
 66
      1
 70
0
 40
0.0100
 41
0.0100
  0
VERTEX
  8
DRD
 10
2.4930
 20
0.9980
 30
 0.0
  0
VERTEX
  8
DRD
 10
2.5430
 20
0.9980
 30
 0.0
  0
SEQEND
  8
DRD
  0
POLYLINE
  8
DRD
 66
      1
 70
1
 40
0.0050
 41
0.0050
  0
VERTEX
  8
DRD
 10
2.4905
 20
0.9980
 30
 0.0
 42
1.0
  0
VERTEX
  8
DRD
 10
2.4955
 20
0.9980
 30
 0.0
 42
1.0
  0
SEQEND
  8
DRD
  0
POLYLINE
  8
DRD
 66
      1
 70
1
 40
0.0050
 41
0.0050
  0
VERTEX
  8
DRD
 10
2.5405
 20
0.9980
 30
 0.0
 42
1.0
  0
VERTEX
  8
DRD
 10
2.5455
 20
0.9980
 30
 0.0
 42
1.0
  0
SEQEND
  8
DRD
  0
POLYLINE
  8
DRL
 66
      1
 70
1
 40
0.0290
 41
0.0290
  0
VERTEX
  8
DRL
 10
2.5040
 20
0.9980
 30
 0.0
 42
1.0
  0
VERTEX
  8
DRL
 10
2.5320
 20
0.9980
 30
 0.0
 42
1.0
  0
SEQEND
  8
DRL
  0
POLYLINE
  8
DRD
 66
      1
 70
0
 40
0.0100
 41
0.0100
  0
VERTEX
  8
DRD
 10
2.3170
 20
0.6520
 30
 0.0
  0
VERTEX
  8
DRD
 10
2.3170
 20
0.7020
 30
 0.0
  0
SEQEND
  8
DRD
  0
POLYLINE
  8
DRD
 66
      1
 70
1
 40
0.0050
 41
0.0050
  0
VERTEX
  8
DRD
 10
2.3145
 20
0.6520
 30
 0.0
 42
1.0
  0
VERTEX
  8
DRD
 10
2.3195
 20
0.6520
 30
 0.0
 42
1.0
  0
SEQEND
  8
DRD
  0
POLYLINE
  8
DRD
 66
      1
 70
1
 40
0.0050
 41
0.0050
  0
VERTEX
  8
DRD
 10
2.3145
 20
0.7020
 30
 0.0
 42
1.0
  0
VERTEX
  8
DRD
 10
2.3195
 20
0.7020
 30
 0.0
 42
1.0
  0
SEQEND
  8
DRD
  0
POLYLINE
  8
DRD
 66
      1
 70
0
 40
0.0100
 41
0.0100
  0
VERTEX
  8
DRD
 10
2.2920
 20
0.6770
 30
 0.0
  0
VERTEX
  8
DRD
 10
2.3420
 20
0.6770
 30
 0.0
  0
SEQEND
  8
DRD
  0
POLYLINE
  8
DRD
 66
      1
 70
1
 40
0.0050
 41
0.0050
  0
VERTEX
  8
DRD
 10
2.2895
 20
0.6770
 30
 0.0
 42
1.0
  0
VERTEX
  8
DRD
 10
2.2945
 20
0.6770
 30
 0.0
 42
1.0
  0
SEQEND
  8
DRD
  0
POLYLINE
  8
DRD
 66
      1
 70
1
 40
0.0050
 41
0.0050
  0
VERTEX
  8
DRD
 10
2.3395
 20
0.6770
 30
 0.0
 42
1.0
  0
VERTEX
  8
DRD
 10
2.3445
 20
0.6770
 30
 0.0
 42
1.0
  0
SEQEND
  8
DRD
  0
POLYLINE
  8
DRL
 66
      1
 70
1
 40
0.0290
 41
0.0290
  0
VERTEX
  8
DRL
 10
2.3030
 20
0.6770
 30
 0.0
 42
1.0
  0
VERTEX
  8
DRL
 10
2.3310
 20
0.6770
 30
 0.0
 42
1.0
  0
SEQEND
  8
DRL
  0
POLYLINE
  8
DRD
 66
      1
 70
0
 40
0.0100
 41
0.0100
  0
VERTEX
  8
DRD
 10
2.5170
 20
0.6520
 30
 0.0
  0
VERTEX
  8
DRD
 10
2.5170
 20
0.7020
 30
 0.0
  0
SEQEND
  8
DRD
  0
POLYLINE
  8
DRD
 66
      1
 70
1
 40
0.0050
 41
0.0050
  0
VERTEX
  8
DRD
 10
2.5145
 20
0.6520
 30
 0.0
 42
1.0
  0
VERTEX
  8
DRD
 10
2.5195
 20
0.6520
 30
 0.0
 42
1.0
  0
SEQEND
  8
DRD
  0
POLYLINE
  8
DRD
 66
      1
 70
1
 40
0.0050
 41
0.0050
  0
VERTEX
  8
DRD
 10
2.5145
 20
0.7020
 30
 0.0
 42
1.0
  0
VERTEX
  8
DRD
 10
2.5195
 20
0.7020
 30
 0.0
 42
1.0
  0
SEQEND
  8
DRD
  0
POLYLINE
  8
DRD
 66
      1
 70
0
 40
0.0100
 41
0.0100
  0
VERTEX
  8
DRD
 10
2.4920
 20
0.6770
 30
 0.0
  0
VERTEX
  8
DRD
 10
2.5420
 20
0.6770
 30
 0.0
  0
SEQEND
  8
DRD
  0
POLYLINE
  8
DRD
 66
      1
 70
1
 40
0.0050
 41
0.0050
  0
VERTEX
  8
DRD
 10
2.4895
 20
0.6770
 30
 0.0
 42
1.0
  0
VERTEX
  8
DRD
 10
2.4945
 20
0.6770
 30
 0.0
 42
1.0
  0
SEQEND
  8
DRD
  0
POLYLINE
  8
DRD
 66
      1
 70
1
 40
0.0050
 41
0.0050
  0
VERTEX
  8
DRD
 10
2.5395
 20
0.6770
 30
 0.0
 42
1.0
  0
VERTEX
  8
DRD
 10
2.5445
 20
0.6770
 30
 0.0
 42
1.0
  0
SEQEND
  8
DRD
  0
POLYLINE
  8
DRL
 66
      1
 70
1
 40
0.0290
 41
0.0290
  0
VERTEX
  8
DRL
 10
2.5030
 20
0.6770
 30
 0.0
 42
1.0
  0
VERTEX
  8
DRL
 10
2.5310
 20
0.6770
 30
 0.0
 42
1.0
  0
SEQEND
  8
DRL
  0
POLYLINE
  8
DRD
 66
      1
 70
0
 40
0.0100
 41
0.0100
  0
VERTEX
  8
DRD
 10
0.8550
 20
1.5740
 30
 0.0
  0
VERTEX
  8
DRD
 10
0.8300
 20
1.5990
 30
 0.0
  0
SEQEND
  8
DRD
  0
POLYLINE
  8
DRD
 66
      1
 70
1
 40
0.0050
 41
0.0050
  0
VERTEX
  8
DRD
 10
0.8525
 20
1.5740
 30
 0.0
 42
1.0
  0
VERTEX
  8
DRD
 10
0.8575
 20
1.5740
 30
 0.0
 42
1.0
  0
SEQEND
  8
DRD
  0
POLYLINE
  8
DRD
 66
      1
 70
1
 40
0.0050
 41
0.0050
  0
VERTEX
  8
DRD
 10
0.8275
 20
1.5990
 30
 0.0
 42
1.0
  0
VERTEX
  8
DRD
 10
0.8325
 20
1.5990
 30
 0.0
 42
1.0
  0
SEQEND
  8
DRD
  0
POLYLINE
  8
DRD
 66
      1
 70
0
 40
0.0100
 41
0.0100
  0
VERTEX
  8
DRD
 10
0.8800
 20
1.5990
 30
 0.0
  0
VERTEX
  8
DRD
 10
0.8550
 20
1.5740
 30
 0.0
  0
SEQEND
  8
DRD
  0
POLYLINE
  8
DRD
 66
      1
 70
1
 40
0.0050
 41
0.0050
  0
VERTEX
  8
DRD
 10
0.8775
 20
1.5990
 30
 0.0
 42
1.0
  0
VERTEX
  8
DRD
 10
0.8825
 20
1.5990
 30
 0.0
 42
1.0
  0
SEQEND
  8
DRD
  0
POLYLINE
  8
DRD
 66
      1
 70
1
 40
0.0050
 41
0.0050
  0
VERTEX
  8
DRD
 10
0.8525
 20
1.5740
 30
 0.0
 42
1.0
  0
VERTEX
  8
DRD
 10
0.8575
 20
1.5740
 30
 0.0
 42
1.0
  0
SEQEND
  8
DRD
  0
POLYLINE
  8
DRD
 66
      1
 70
0
 40
0.0100
 41
0.0100
  0
VERTEX
  8
DRD
 10
0.8550
 20
1.6240
 30
 0.0
  0
VERTEX
  8
DRD
 10
0.8800
 20
1.5990
 30
 0.0
  0
SEQEND
  8
DRD
  0
POLYLINE
  8
DRD
 66
      1
 70
1
 40
0.0050
 41
0.0050
  0
VERTEX
  8
DRD
 10
0.8525
 20
1.6240
 30
 0.0
 42
1.0
  0
VERTEX
  8
DRD
 10
0.8575
 20
1.6240
 30
 0.0
 42
1.0
  0
SEQEND
  8
DRD
  0
POLYLINE
  8
DRD
 66
      1
 70
1
 40
0.0050
 41
0.0050
  0
VERTEX
  8
DRD
 10
0.8775
 20
1.5990
 30
 0.0
 42
1.0
  0
VERTEX
  8
DRD
 10
0.8825
 20
1.5990
 30
 0.0
 42
1.0
  0
SEQEND
  8
DRD
  0
POLYLINE
  8
DRD
 66
      1
 70
0
 40
0.0100
 41
0.0100
  0
VERTEX
  8
DRD
 10
0.8300
 20
1.5990
 30
 0.0
  0
VERTEX
  8
DRD
 10
0.8550
 20
1.6240
 30
 0.0
  0
SEQEND
  8
DRD
  0
POLYLINE
  8
DRD
 66
      1
 70
1
 40
0.0050
 41
0.0050
  0
VERTEX
  8
DRD
 10
0.8275
 20
1.5990
 30
 0.0
 42
1.0
  0
VERTEX
  8
DRD
 10
0.8325
 20
1.5990
 30
 0.0
 42
1.0
  0
SEQEND
  8
DRD
  0
POLYLINE
  8
DRD
 66
      1
 70
1
 40
0.0050
 41
0.0050
  0
VERTEX
  8
DRD
 10
0.8525
 20
1.6240
 30
 0.0
 42
1.0
  0
VERTEX
  8
DRD
 10
0.8575
 20
1.6240
 30
 0.0
 42
1.0
  0
SEQEND
  8
DRD
  0
POLYLINE
  8
DRL
 66
      1
 70
1
 40
0.0090
 41
0.0090
  0
VERTEX
  8
DRL
 10
0.8510
 20
1.5990
 30
 0.0
 42
1.0
  0
VERTEX
  8
DRL
 10
0.8590
 20
1.5990
 30
 0.0
 42
1.0
  0
SEQEND
  8
DRL
  0
POLYLINE
  8
DRD
 66
      1
 70
0
 40
0.0100
 41
0.0100
  0
VERTEX
  8
DRD
 10
1.2280
 20
0.9670
 30
 0.0
  0
VERTEX
  8
DRD
 10
1.2030
 20
0.9920
 30
 0.0
  0
SEQEND
  8
DRD
  0
POLYLINE
  8
DRD
 66
      1
 70
1
 40
0.0050
 41
0.0050
  0
VERTEX
  8
DRD
 10
1.2255
 20
0.9670
 30
 0.0
 42
1.0
  0
VERTEX
  8
DRD
 10
1.2305
 20
0.9670
 30
 0.0
 42
1.0
  0
SEQEND
  8
DRD
  0
POLYLINE
  8
DRD
 66
      1
 70
1
 40
0.0050
 41
0.0050
  0
VERTEX
  8
DRD
 10
1.2005
 20
0.9920
 30
 0.0
 42
1.0
  0
VERTEX
  8
DRD
 10
1.2055
 20
0.9920
 30
 0.0
 42
1.0
  0
SEQEND
  8
DRD
  0
POLYLINE
  8
DRD
 66
      1
 70
0
 40
0.0100
 41
0.0100
  0
VERTEX
  8
DRD
 10
1.2530
 20
0.9920
 30
 0.0
  0
VERTEX
  8
DRD
 10
1.2280
 20
0.9670
 30
 0.0
  0
SEQEND
  8
DRD
  0
POLYLINE
  8
DRD
 66
      1
 70
1
 40
0.0050
 41
0.0050
  0
VERTEX
  8
DRD
 10
1.2505
 20
0.9920
 30
 0.0
 42
1.0
  0
VERTEX
  8
DRD
 10
1.2555
 20
0.9920
 30
 0.0
 42
1.0
  0
SEQEND
  8
DRD
  0
POLYLINE
  8
DRD
 66
      1
 70
1
 40
0.0050
 41
0.0050
  0
VERTEX
  8
DRD
 10
1.2255
 20
0.9670
 30
 0.0
 42
1.0
  0
VERTEX
  8
DRD
 10
1.2305
 20
0.9670
 30
 0.0
 42
1.0
  0
SEQEND
  8
DRD
  0
POLYLINE
  8
DRD
 66
      1
 70
0
 40
0.0100
 41
0.0100
  0
VERTEX
  8
DRD
 10
1.2280
 20
1.0170
 30
 0.0
  0
VERTEX
  8
DRD
 10
1.2530
 20
0.9920
 30
 0.0
  0
SEQEND
  8
DRD
  0
POLYLINE
  8
DRD
 66
      1
 70
1
 40
0.0050
 41
0.0050
  0
VERTEX
  8
DRD
 10
1.2255
 20
1.0170
 30
 0.0
 42
1.0
  0
VERTEX
  8
DRD
 10
1.2305
 20
1.0170
 30
 0.0
 42
1.0
  0
SEQEND
  8
DRD
  0
POLYLINE
  8
DRD
 66
      1
 70
1
 40
0.0050
 41
0.0050
  0
VERTEX
  8
DRD
 10
1.2505
 20
0.9920
 30
 0.0
 42
1.0
  0
VERTEX
  8
DRD
 10
1.2555
 20
0.9920
 30
 0.0
 42
1.0
  0
SEQEND
  8
DRD
  0
POLYLINE
  8
DRD
 66
      1
 70
0
 40
0.0100
 41
0.0100
  0
VERTEX
  8
DRD
 10
1.2030
 20
0.9920
 30
 0.0
  0
VERTEX
  8
DRD
 10
1.2280
 20
1.0170
 30
 0.0
  0
SEQEND
  8
DRD
  0
POLYLINE
  8
DRD
 66
      1
 70
1
 40
0.0050
 41
0.0050
  0
VERTEX
  8
DRD
 10
1.2005
 20
0.9920
 30
 0.0
 42
1.0
  0
VERTEX
  8
DRD
 10
1.2055
 20
0.9920
 30
 0.0
 42
1.0
  0
SEQEND
  8
DRD
  0
POLYLINE
  8
DRD
 66
      1
 70
1
 40
0.0050
 41
0.0050
  0
VERTEX
  8
DRD
 10
1.2255
 20
1.0170
 30
 0.0
 42
1.0
  0
VERTEX
  8
DRD
 10
1.2305
 20
1.0170
 30
 0.0
 42
1.0
  0
SEQEND
  8
DRD
  0
POLYLINE
  8
DRL
 66
      1
 70
1
 40
0.0090
 41
0.0090
  0
VERTEX
  8
DRL
 10
1.2240
 20
0.9920
 30
 0.0
 42
1.0
  0
VERTEX
  8
DRL
 10
1.2320
 20
0.9920
 30
 0.0
 42
1.0
  0
SEQEND
  8
DRL
  0
POLYLINE
  8
DRD
 66
      1
 70
0
 40
0.0100
 41
0.0100
  0
VERTEX
  8
DRD
 10
1.2770
 20
0.9670
 30
 0.0
  0
VERTEX
  8
DRD
 10
1.2520
 20
0.9920
 30
 0.0
  0
SEQEND
  8
DRD
  0
POLYLINE
  8
DRD
 66
      1
 70
1
 40
0.0050
 41
0.0050
  0
VERTEX
  8
DRD
 10
1.2745
 20
0.9670
 30
 0.0
 42
1.0
  0
VERTEX
  8
DRD
 10
1.2795
 20
0.9670
 30
 0.0
 42
1.0
  0
SEQEND
  8
DRD
  0
POLYLINE
  8
DRD
 66
      1
 70
1
 40
0.0050
 41
0.0050
  0
VERTEX
  8
DRD
 10
1.2495
 20
0.9920
 30
 0.0
 42
1.0
  0
VERTEX
  8
DRD
 10
1.2545
 20
0.9920
 30
 0.0
 42
1.0
  0
SEQEND
  8
DRD
  0
POLYLINE
  8
DRD
 66
      1
 70
0
 40
0.0100
 41
0.0100
  0
VERTEX
  8
DRD
 10
1.3020
 20
0.9920
 30
 0.0
  0
VERTEX
  8
DRD
 10
1.2770
 20
0.9670
 30
 0.0
  0
SEQEND
  8
DRD
  0
POLYLINE
  8
DRD
 66
      1
 70
1
 40
0.0050
 41
0.0050
  0
VERTEX
  8
DRD
 10
1.2995
 20
0.9920
 30
 0.0
 42
1.0
  0
VERTEX
  8
DRD
 10
1.3045
 20
0.9920
 30
 0.0
 42
1.0
  0
SEQEND
  8
DRD
  0
POLYLINE
  8
DRD
 66
      1
 70
1
 40
0.0050
 41
0.0050
  0
VERTEX
  8
DRD
 10
1.2745
 20
0.9670
 30
 0.0
 42
1.0
  0
VERTEX
  8
DRD
 10
1.2795
 20
0.9670
 30
 0.0
 42
1.0
  0
SEQEND
  8
DRD
  0
POLYLINE
  8
DRD
 66
      1
 70
0
 40
0.0100
 41
0.0100
  0
VERTEX
  8
DRD
 10
1.2770
 20
1.0170
 30
 0.0
  0
VERTEX
  8
DRD
 10
1.3020
 20
0.9920
 30
 0.0
  0
SEQEND
  8
DRD
  0
POLYLINE
  8
DRD
 66
      1
 70
1
 40
0.0050
 41
0.0050
  0
VERTEX
  8
DRD
 10
1.2745
 20
1.0170
 30
 0.0
 42
1.0
  0
VERTEX
  8
DRD
 10
1.2795
 20
1.0170
 30
 0.0
 42
1.0
  0
SEQEND
  8
DRD
  0
POLYLINE
  8
DRD
 66
      1
 70
1
 40
0.0050
 41
0.0050
  0
VERTEX
  8
DRD
 10
1.2995
 20
0.9920
 30
 0.0
 42
1.0
  0
VERTEX
  8
DRD
 10
1.3045
 20
0.9920
 30
 0.0
 42
1.0
  0
SEQEND
  8
DRD
  0
POLYLINE
  8
DRD
 66
      1
 70
0
 40
0.0100
 41
0.0100
  0
VERTEX
  8
DRD
 10
1.2520
 20
0.9920
 30
 0.0
  0
VERTEX
  8
DRD
 10
1.2770
 20
1.0170
 30
 0.0
  0
SEQEND
  8
DRD
  0
POLYLINE
  8
DRD
 66
      1
 70
1
 40
0.0050
 41
0.0050
  0
VERTEX
  8
DRD
 10
1.2495
 20
0.9920
 30
 0.0
 42
1.0
  0
VERTEX
  8
DRD
 10
1.2545
 20
0.9920
 30
 0.0
 42
1.0
  0
SEQEND
  8
DRD
  0
POLYLINE
  8
DRD
 66
      1
 70
1
 40
0.0050
 41
0.0050
  0
VERTEX
  8
DRD
 10
1.2745
 20
1.0170
 30
 0.0
 42
1.0
  0
VERTEX
  8
DRD
 10
1.2795
 20
1.0170
 30
 0.0
 42
1.0
  0
SEQEND
  8
DRD
  0
POLYLINE
  8
DRL
 66
      1
 70
1
 40
0.0090
 41
0.0090
  0
VERTEX
  8
DRL
 10
1.2730
 20
0.9920
 30
 0.0
 42
1.0
  0
VERTEX
  8
DRL
 10
1.2810
 20
0.9920
 30
 0.0
 42
1.0
  0
SEQEND
  8
DRL
  0
POLYLINE
  8
DRD
 66
      1
 70
0
 40
0.0100
 41
0.0100
  0
VERTEX
  8
DRD
 10
1.3240
 20
0.9670
 30
 0.0
  0
VERTEX
  8
DRD
 10
1.2990
 20
0.9920
 30
 0.0
  0
SEQEND
  8
DRD
  0
POLYLINE
  8
DRD
 66
      1
 70
1
 40
0.0050
 41
0.0050
  0
VERTEX
  8
DRD
 10
1.3215
 20
0.9670
 30
 0.0
 42
1.0
  0
VERTEX
  8
DRD
 10
1.3265
 20
0.9670
 30
 0.0
 42
1.0
  0
SEQEND
  8
DRD
  0
POLYLINE
  8
DRD
 66
      1
 70
1
 40
0.0050
 41
0.0050
  0
VERTEX
  8
DRD
 10
1.2965
 20
0.9920
 30
 0.0
 42
1.0
  0
VERTEX
  8
DRD
 10
1.3015
 20
0.9920
 30
 0.0
 42
1.0
  0
SEQEND
  8
DRD
  0
POLYLINE
  8
DRD
 66
      1
 70
0
 40
0.0100
 41
0.0100
  0
VERTEX
  8
DRD
 10
1.3490
 20
0.9920
 30
 0.0
  0
VERTEX
  8
DRD
 10
1.3240
 20
0.9670
 30
 0.0
  0
SEQEND
  8
DRD
  0
POLYLINE
  8
DRD
 66
      1
 70
1
 40
0.0050
 41
0.0050
  0
VERTEX
  8
DRD
 10
1.3465
 20
0.9920
 30
 0.0
 42
1.0
  0
VERTEX
  8
DRD
 10
1.3515
 20
0.9920
 30
 0.0
 42
1.0
  0
SEQEND
  8
DRD
  0
POLYLINE
  8
DRD
 66
      1
 70
1
 40
0.0050
 41
0.0050
  0
VERTEX
  8
DRD
 10
1.3215
 20
0.9670
 30
 0.0
 42
1.0
  0
VERTEX
  8
DRD
 10
1.3265
 20
0.9670
 30
 0.0
 42
1.0
  0
SEQEND
  8
DRD
  0
POLYLINE
  8
DRD
 66
      1
 70
0
 40
0.0100
 41
0.0100
  0
VERTEX
  8
DRD
 10
1.3240
 20
1.0170
 30
 0.0
  0
VERTEX
  8
DRD
 10
1.3490
 20
0.9920
 30
 0.0
  0
SEQEND
  8
DRD
  0
POLYLINE
  8
DRD
 66
      1
 70
1
 40
0.0050
 41
0.0050
  0
VERTEX
  8
DRD
 10
1.3215
 20
1.0170
 30
 0.0
 42
1.0
  0
VERTEX
  8
DRD
 10
1.3265
 20
1.0170
 30
 0.0
 42
1.0
  0
SEQEND
  8
DRD
  0
POLYLINE
  8
DRD
 66
      1
 70
1
 40
0.0050
 41
0.0050
  0
VERTEX
  8
DRD
 10
1.3465
 20
0.9920
 30
 0.0
 42
1.0
  0
VERTEX
  8
DRD
 10
1.3515
 20
0.9920
 30
 0.0
 42
1.0
  0
SEQEND
  8
DRD
  0
POLYLINE
  8
DRD
 66
      1
 70
0
 40
0.0100
 41
0.0100
  0
VERTEX
  8
DRD
 10
1.2990
 20
0.9920
 30
 0.0
  0
VERTEX
  8
DRD
 10
1.3240
 20
1.0170
 30
 0.0
  0
SEQEND
  8
DRD
  0
POLYLINE
  8
DRD
 66
      1
 70
1
 40
0.0050
 41
0.0050
  0
VERTEX
  8
DRD
 10
1.2965
 20
0.9920
 30
 0.0
 42
1.0
  0
VERTEX
  8
DRD
 10
1.3015
 20
0.9920
 30
 0.0
 42
1.0
  0
SEQEND
  8
DRD
  0
POLYLINE
  8
DRD
 66
      1
 70
1
 40
0.0050
 41
0.0050
  0
VERTEX
  8
DRD
 10
1.3215
 20
1.0170
 30
 0.0
 42
1.0
  0
VERTEX
  8
DRD
 10
1.3265
 20
1.0170
 30
 0.0
 42
1.0
  0
SEQEND
  8
DRD
  0
POLYLINE
  8
DRL
 66
      1
 70
1
 40
0.0090
 41
0.0090
  0
VERTEX
  8
DRL
 10
1.3200
 20
0.9920
 30
 0.0
 42
1.0
  0
VERTEX
  8
DRL
 10
1.3280
 20
0.9920
 30
 0.0
 42
1.0
  0
SEQEND
  8
DRL
  0
POLYLINE
  8
DRD
 66
      1
 70
0
 40
0.0100
 41
0.0100
  0
VERTEX
  8
DRD
 10
2.3680
 20
1.3460
 30
 0.0
  0
VERTEX
  8
DRD
 10
2.3430
 20
1.3710
 30
 0.0
  0
SEQEND
  8
DRD
  0
POLYLINE
  8
DRD
 66
      1
 70
1
 40
0.0050
 41
0.0050
  0
VERTEX
  8
DRD
 10
2.3655
 20
1.3460
 30
 0.0
 42
1.0
  0
VERTEX
  8
DRD
 10
2.3705
 20
1.3460
 30
 0.0
 42
1.0
  0
SEQEND
  8
DRD
  0
POLYLINE
  8
DRD
 66
      1
 70
1
 40
0.0050
 41
0.0050
  0
VERTEX
  8
DRD
 10
2.3405
 20
1.3710
 30
 0.0
 42
1.0
  0
VERTEX
  8
DRD
 10
2.3455
 20
1.3710
 30
 0.0
 42
1.0
  0
SEQEND
  8
DRD
  0
POLYLINE
  8
DRD
 66
      1
 70
0
 40
0.0100
 41
0.0100
  0
VERTEX
  8
DRD
 10
2.3930
 20
1.3710
 30
 0.0
  0
VERTEX
  8
DRD
 10
2.3680
 20
1.3460
 30
 0.0
  0
SEQEND
  8
DRD
  0
POLYLINE
  8
DRD
 66
      1
 70
1
 40
0.0050
 41
0.0050
  0
VERTEX
  8
DRD
 10
2.3905
 20
1.3710
 30
 0.0
 42
1.0
  0
VERTEX
  8
DRD
 10
2.3955
 20
1.3710
 30
 0.0
 42
1.0
  0
SEQEND
  8
DRD
  0
POLYLINE
  8
DRD
 66
      1
 70
1
 40
0.0050
 41
0.0050
  0
VERTEX
  8
DRD
 10
2.3655
 20
1.3460
 30
 0.0
 42
1.0
  0
VERTEX
  8
DRD
 10
2.3705
 20
1.3460
 30
 0.0
 42
1.0
  0
SEQEND
  8
DRD
  0
POLYLINE
  8
DRD
 66
      1
 70
0
 40
0.0100
 41
0.0100
  0
VERTEX
  8
DRD
 10
2.3680
 20
1.3960
 30
 0.0
  0
VERTEX
  8
DRD
 10
2.3930
 20
1.3710
 30
 0.0
  0
SEQEND
  8
DRD
  0
POLYLINE
  8
DRD
 66
      1
 70
1
 40
0.0050
 41
0.0050
  0
VERTEX
  8
DRD
 10
2.3655
 20
1.3960
 30
 0.0
 42
1.0
  0
VERTEX
  8
DRD
 10
2.3705
 20
1.3960
 30
 0.0
 42
1.0
  0
SEQEND
  8
DRD
  0
POLYLINE
  8
DRD
 66
      1
 70
1
 40
0.0050
 41
0.0050
  0
VERTEX
  8
DRD
 10
2.3905
 20
1.3710
 30
 0.0
 42
1.0
  0
VERTEX
  8
DRD
 10
2.3955
 20
1.3710
 30
 0.0
 42
1.0
  0
SEQEND
  8
DRD
  0
POLYLINE
  8
DRD
 66
      1
 70
0
 40
0.0100
 41
0.0100
  0
VERTEX
  8
DRD
 10
2.3430
 20
1.3710
 30
 0.0
  0
VERTEX
  8
DRD
 10
2.3680
 20
1.3960
 30
 0.0
  0
SEQEND
  8
DRD
  0
POLYLINE
  8
DRD
 66
      1
 70
1
 40
0.0050
 41
0.0050
  0
VERTEX
  8
DRD
 10
2.3405
 20
1.3710
 30
 0.0
 42
1.0
  0
VERTEX
  8
DRD
 10
2.3455
 20
1.3710
 30
 0.0
 42
1.0
  0
SEQEND
  8
DRD
  0
POLYLINE
  8
DRD
 66
      1
 70
1
 40
0.0050
 41
0.0050
  0
VERTEX
  8
DRD
 10
2.3655
 20
1.3960
 30
 0.0
 42
1.0
  0
VERTEX
  8
DRD
 10
2.3705
 20
1.3960
 30
 0.0
 42
1.0
  0
SEQEND
  8
DRD
  0
POLYLINE
  8
DRL
 66
      1
 70
1
 40
0.0090
 41
0.0090
  0
VERTEX
  8
DRL
 10
2.3640
 20
1.3710
 30
 0.0
 42
1.0
  0
VERTEX
  8
DRL
 10
2.3720
 20
1.3710
 30
 0.0
 42
1.0
  0
SEQEND
  8
DRL
  0
POLYLINE
  8
DRD
 66
      1
 70
0
 40
0.0100
 41
0.0100
  0
VERTEX
  8
DRD
 10
2.3680
 20
1.3030
 30
 0.0
  0
VERTEX
  8
DRD
 10
2.3430
 20
1.3280
 30
 0.0
  0
SEQEND
  8
DRD
  0
POLYLINE
  8
DRD
 66
      1
 70
1
 40
0.0050
 41
0.0050
  0
VERTEX
  8
DRD
 10
2.3655
 20
1.3030
 30
 0.0
 42
1.0
  0
VERTEX
  8
DRD
 10
2.3705
 20
1.3030
 30
 0.0
 42
1.0
  0
SEQEND
  8
DRD
  0
POLYLINE
  8
DRD
 66
      1
 70
1
 40
0.0050
 41
0.0050
  0
VERTEX
  8
DRD
 10
2.3405
 20
1.3280
 30
 0.0
 42
1.0
  0
VERTEX
  8
DRD
 10
2.3455
 20
1.3280
 30
 0.0
 42
1.0
  0
SEQEND
  8
DRD
  0
POLYLINE
  8
DRD
 66
      1
 70
0
 40
0.0100
 41
0.0100
  0
VERTEX
  8
DRD
 10
2.3930
 20
1.3280
 30
 0.0
  0
VERTEX
  8
DRD
 10
2.3680
 20
1.3030
 30
 0.0
  0
SEQEND
  8
DRD
  0
POLYLINE
  8
DRD
 66
      1
 70
1
 40
0.0050
 41
0.0050
  0
VERTEX
  8
DRD
 10
2.3905
 20
1.3280
 30
 0.0
 42
1.0
  0
VERTEX
  8
DRD
 10
2.3955
 20
1.3280
 30
 0.0
 42
1.0
  0
SEQEND
  8
DRD
  0
POLYLINE
  8
DRD
 66
      1
 70
1
 40
0.0050
 41
0.0050
  0
VERTEX
  8
DRD
 10
2.3655
 20
1.3030
 30
 0.0
 42
1.0
  0
VERTEX
  8
DRD
 10
2.3705
 20
1.3030
 30
 0.0
 42
1.0
  0
SEQEND
  8
DRD
  0
POLYLINE
  8
DRD
 66
      1
 70
0
 40
0.0100
 41
0.0100
  0
VERTEX
  8
DRD
 10
2.3680
 20
1.3530
 30
 0.0
  0
VERTEX
  8
DRD
 10
2.3930
 20
1.3280
 30
 0.0
  0
SEQEND
  8
DRD
  0
POLYLINE
  8
DRD
 66
      1
 70
1
 40
0.0050
 41
0.0050
  0
VERTEX
  8
DRD
 10
2.3655
 20
1.3530
 30
 0.0
 42
1.0
  0
VERTEX
  8
DRD
 10
2.3705
 20
1.3530
 30
 0.0
 42
1.0
  0
SEQEND
  8
DRD
  0
POLYLINE
  8
DRD
 66
      1
 70
1
 40
0.0050
 41
0.0050
  0
VERTEX
  8
DRD
 10
2.3905
 20
1.3280
 30
 0.0
 42
1.0
  0
VERTEX
  8
DRD
 10
2.3955
 20
1.3280
 30
 0.0
 42
1.0
  0
SEQEND
  8
DRD
  0
POLYLINE
  8
DRD
 66
      1
 70
0
 40
0.0100
 41
0.0100
  0
VERTEX
  8
DRD
 10
2.3430
 20
1.3280
 30
 0.0
  0
VERTEX
  8
DRD
 10
2.3680
 20
1.3530
 30
 0.0
  0
SEQEND
  8
DRD
  0
POLYLINE
  8
DRD
 66
      1
 70
1
 40
0.0050
 41
0.0050
  0
VERTEX
  8
DRD
 10
2.3405
 20
1.3280
 30
 0.0
 42
1.0
  0
VERTEX
  8
DRD
 10
2.3455
 20
1.3280
 30
 0.0
 42
1.0
  0
SEQEND
  8
DRD
  0
POLYLINE
  8
DRD
 66
      1
 70
1
 40
0.0050
 41
0.0050
  0
VERTEX
  8
DRD
 10
2.3655
 20
1.3530
 30
 0.0
 42
1.0
  0
VERTEX
  8
DRD
 10
2.3705
 20
1.3530
 30
 0.0
 42
1.0
  0
SEQEND
  8
DRD
  0
POLYLINE
  8
DRL
 66
      1
 70
1
 40
0.0090
 41
0.0090
  0
VERTEX
  8
DRL
 10
2.3640
 20
1.3280
 30
 0.0
 42
1.0
  0
VERTEX
  8
DRL
 10
2.3720
 20
1.3280
 30
 0.0
 42
1.0
  0
SEQEND
  8
DRL
  0
POLYLINE
  8
DRD
 66
      1
 70
0
 40
0.0100
 41
0.0100
  0
VERTEX
  8
DRD
 10
2.4580
 20
1.3450
 30
 0.0
  0
VERTEX
  8
DRD
 10
2.4330
 20
1.3700
 30
 0.0
  0
SEQEND
  8
DRD
  0
POLYLINE
  8
DRD
 66
      1
 70
1
 40
0.0050
 41
0.0050
  0
VERTEX
  8
DRD
 10
2.4555
 20
1.3450
 30
 0.0
 42
1.0
  0
VERTEX
  8
DRD
 10
2.4605
 20
1.3450
 30
 0.0
 42
1.0
  0
SEQEND
  8
DRD
  0
POLYLINE
  8
DRD
 66
      1
 70
1
 40
0.0050
 41
0.0050
  0
VERTEX
  8
DRD
 10
2.4305
 20
1.3700
 30
 0.0
 42
1.0
  0
VERTEX
  8
DRD
 10
2.4355
 20
1.3700
 30
 0.0
 42
1.0
  0
SEQEND
  8
DRD
  0
POLYLINE
  8
DRD
 66
      1
 70
0
 40
0.0100
 41
0.0100
  0
VERTEX
  8
DRD
 10
2.4830
 20
1.3700
 30
 0.0
  0
VERTEX
  8
DRD
 10
2.4580
 20
1.3450
 30
 0.0
  0
SEQEND
  8
DRD
  0
POLYLINE
  8
DRD
 66
      1
 70
1
 40
0.0050
 41
0.0050
  0
VERTEX
  8
DRD
 10
2.4805
 20
1.3700
 30
 0.0
 42
1.0
  0
VERTEX
  8
DRD
 10
2.4855
 20
1.3700
 30
 0.0
 42
1.0
  0
SEQEND
  8
DRD
  0
POLYLINE
  8
DRD
 66
      1
 70
1
 40
0.0050
 41
0.0050
  0
VERTEX
  8
DRD
 10
2.4555
 20
1.3450
 30
 0.0
 42
1.0
  0
VERTEX
  8
DRD
 10
2.4605
 20
1.3450
 30
 0.0
 42
1.0
  0
SEQEND
  8
DRD
  0
POLYLINE
  8
DRD
 66
      1
 70
0
 40
0.0100
 41
0.0100
  0
VERTEX
  8
DRD
 10
2.4580
 20
1.3950
 30
 0.0
  0
VERTEX
  8
DRD
 10
2.4830
 20
1.3700
 30
 0.0
  0
SEQEND
  8
DRD
  0
POLYLINE
  8
DRD
 66
      1
 70
1
 40
0.0050
 41
0.0050
  0
VERTEX
  8
DRD
 10
2.4555
 20
1.3950
 30
 0.0
 42
1.0
  0
VERTEX
  8
DRD
 10
2.4605
 20
1.3950
 30
 0.0
 42
1.0
  0
SEQEND
  8
DRD
  0
POLYLINE
  8
DRD
 66
      1
 70
1
 40
0.0050
 41
0.0050
  0
VERTEX
  8
DRD
 10
2.4805
 20
1.3700
 30
 0.0
 42
1.0
  0
VERTEX
  8
DRD
 10
2.4855
 20
1.3700
 30
 0.0
 42
1.0
  0
SEQEND
  8
DRD
  0
POLYLINE
  8
DRD
 66
      1
 70
0
 40
0.0100
 41
0.0100
  0
VERTEX
  8
DRD
 10
2.4330
 20
1.3700
 30
 0.0
  0
VERTEX
  8
DRD
 10
2.4580
 20
1.3950
 30
 0.0
  0
SEQEND
  8
DRD
  0
POLYLINE
  8
DRD
 66
      1
 70
1
 40
0.0050
 41
0.0050
  0
VERTEX
  8
DRD
 10
2.4305
 20
1.3700
 30
 0.0
 42
1.0
  0
VERTEX
  8
DRD
 10
2.4355
 20
1.3700
 30
 0.0
 42
1.0
  0
SEQEND
  8
DRD
  0
POLYLINE
  8
DRD
 66
      1
 70
1
 40
0.0050
 41
0.0050
  0
VERTEX
  8
DRD
 10
2.4555
 20
1.3950
 30
 0.0
 42
1.0
  0
VERTEX
  8
DRD
 10
2.4605
 20
1.3950
 30
 0.0
 42
1.0
  0
SEQEND
  8
DRD
  0
POLYLINE
  8
DRL
 66
      1
 70
1
 40
0.0090
 41
0.0090
  0
VERTEX
  8
DRL
 10
2.4540
 20
1.3700
 30
 0.0
 42
1.0
  0
VERTEX
  8
DRL
 10
2.4620
 20
1.3700
 30
 0.0
 42
1.0
  0
SEQEND
  8
DRL
  0
POLYLINE
  8
DRD
 66
      1
 70
0
 40
0.0100
 41
0.0100
  0
VERTEX
  8
DRD
 10
2.5420
 20
1.3440
 30
 0.0
  0
VERTEX
  8
DRD
 10
2.5170
 20
1.3690
 30
 0.0
  0
SEQEND
  8
DRD
  0
POLYLINE
  8
DRD
 66
      1
 70
1
 40
0.0050
 41
0.0050
  0
VERTEX
  8
DRD
 10
2.5395
 20
1.3440
 30
 0.0
 42
1.0
  0
VERTEX
  8
DRD
 10
2.5445
 20
1.3440
 30
 0.0
 42
1.0
  0
SEQEND
  8
DRD
  0
POLYLINE
  8
DRD
 66
      1
 70
1
 40
0.0050
 41
0.0050
  0
VERTEX
  8
DRD
 10
2.5145
 20
1.3690
 30
 0.0
 42
1.0
  0
VERTEX
  8
DRD
 10
2.5195
 20
1.3690
 30
 0.0
 42
1.0
  0
SEQEND
  8
DRD
  0
POLYLINE
  8
DRD
 66
      1
 70
0
 40
0.0100
 41
0.0100
  0
VERTEX
  8
DRD
 10
2.5670
 20
1.3690
 30
 0.0
  0
VERTEX
  8
DRD
 10
2.5420
 20
1.3440
 30
 0.0
  0
SEQEND
  8
DRD
  0
POLYLINE
  8
DRD
 66
      1
 70
1
 40
0.0050
 41
0.0050
  0
VERTEX
  8
DRD
 10
2.5645
 20
1.3690
 30
 0.0
 42
1.0
  0
VERTEX
  8
DRD
 10
2.5695
 20
1.3690
 30
 0.0
 42
1.0
  0
SEQEND
  8
DRD
  0
POLYLINE
  8
DRD
 66
      1
 70
1
 40
0.0050
 41
0.0050
  0
VERTEX
  8
DRD
 10
2.5395
 20
1.3440
 30
 0.0
 42
1.0
  0
VERTEX
  8
DRD
 10
2.5445
 20
1.3440
 30
 0.0
 42
1.0
  0
SEQEND
  8
DRD
  0
POLYLINE
  8
DRD
 66
      1
 70
0
 40
0.0100
 41
0.0100
  0
VERTEX
  8
DRD
 10
2.5420
 20
1.3940
 30
 0.0
  0
VERTEX
  8
DRD
 10
2.5670
 20
1.3690
 30
 0.0
  0
SEQEND
  8
DRD
  0
POLYLINE
  8
DRD
 66
      1
 70
1
 40
0.0050
 41
0.0050
  0
VERTEX
  8
DRD
 10
2.5395
 20
1.3940
 30
 0.0
 42
1.0
  0
VERTEX
  8
DRD
 10
2.5445
 20
1.3940
 30
 0.0
 42
1.0
  0
SEQEND
  8
DRD
  0
POLYLINE
  8
DRD
 66
      1
 70
1
 40
0.0050
 41
0.0050
  0
VERTEX
  8
DRD
 10
2.5645
 20
1.3690
 30
 0.0
 42
1.0
  0
VERTEX
  8
DRD
 10
2.5695
 20
1.3690
 30
 0.0
 42
1.0
  0
SEQEND
  8
DRD
  0
POLYLINE
  8
DRD
 66
      1
 70
0
 40
0.0100
 41
0.0100
  0
VERTEX
  8
DRD
 10
2.5170
 20
1.3690
 30
 0.0
  0
VERTEX
  8
DRD
 10
2.5420
 20
1.3940
 30
 0.0
  0
SEQEND
  8
DRD
  0
POLYLINE
  8
DRD
 66
      1
 70
1
 40
0.0050
 41
0.0050
  0
VERTEX
  8
DRD
 10
2.5145
 20
1.3690
 30
 0.0
 42
1.0
  0
VERTEX
  8
DRD
 10
2.5195
 20
1.3690
 30
 0.0
 42
1.0
  0
SEQEND
  8
DRD
  0
POLYLINE
  8
DRD
 66
      1
 70
1
 40
0.0050
 41
0.0050
  0
VERTEX
  8
DRD
 10
2.5395
 20
1.3940
 30
 0.0
 42
1.0
  0
VERTEX
  8
DRD
 10
2.5445
 20
1.3940
 30
 0.0
 42
1.0
  0
SEQEND
  8
DRD
  0
POLYLINE
  8
DRL
 66
      1
 70
1
 40
0.0090
 41
0.0090
  0
VERTEX
  8
DRL
 10
2.5380
 20
1.3690
 30
 0.0
 42
1.0
  0
VERTEX
  8
DRL
 10
2.5460
 20
1.3690
 30
 0.0
 42
1.0
  0
SEQEND
  8
DRL
  0
POLYLINE
  8
DRD
 66
      1
 70
0
 40
0.0100
 41
0.0100
  0
VERTEX
  8
DRD
 10
2.4580
 20
1.3030
 30
 0.0
  0
VERTEX
  8
DRD
 10
2.4330
 20
1.3280
 30
 0.0
  0
SEQEND
  8
DRD
  0
POLYLINE
  8
DRD
 66
      1
 70
1
 40
0.0050
 41
0.0050
  0
VERTEX
  8
DRD
 10
2.4555
 20
1.3030
 30
 0.0
 42
1.0
  0
VERTEX
  8
DRD
 10
2.4605
 20
1.3030
 30
 0.0
 42
1.0
  0
SEQEND
  8
DRD
  0
POLYLINE
  8
DRD
 66
      1
 70
1
 40
0.0050
 41
0.0050
  0
VERTEX
  8
DRD
 10
2.4305
 20
1.3280
 30
 0.0
 42
1.0
  0
VERTEX
  8
DRD
 10
2.4355
 20
1.3280
 30
 0.0
 42
1.0
  0
SEQEND
  8
DRD
  0
POLYLINE
  8
DRD
 66
      1
 70
0
 40
0.0100
 41
0.0100
  0
VERTEX
  8
DRD
 10
2.4830
 20
1.3280
 30
 0.0
  0
VERTEX
  8
DRD
 10
2.4580
 20
1.3030
 30
 0.0
  0
SEQEND
  8
DRD
  0
POLYLINE
  8
DRD
 66
      1
 70
1
 40
0.0050
 41
0.0050
  0
VERTEX
  8
DRD
 10
2.4805
 20
1.3280
 30
 0.0
 42
1.0
  0
VERTEX
  8
DRD
 10
2.4855
 20
1.3280
 30
 0.0
 42
1.0
  0
SEQEND
  8
DRD
  0
POLYLINE
  8
DRD
 66
      1
 70
1
 40
0.0050
 41
0.0050
  0
VERTEX
  8
DRD
 10
2.4555
 20
1.3030
 30
 0.0
 42
1.0
  0
VERTEX
  8
DRD
 10
2.4605
 20
1.3030
 30
 0.0
 42
1.0
  0
SEQEND
  8
DRD
  0
POLYLINE
  8
DRD
 66
      1
 70
0
 40
0.0100
 41
0.0100
  0
VERTEX
  8
DRD
 10
2.4580
 20
1.3530
 30
 0.0
  0
VERTEX
  8
DRD
 10
2.4830
 20
1.3280
 30
 0.0
  0
SEQEND
  8
DRD
  0
POLYLINE
  8
DRD
 66
      1
 70
1
 40
0.0050
 41
0.0050
  0
VERTEX
  8
DRD
 10
2.4555
 20
1.3530
 30
 0.0
 42
1.0
  0
VERTEX
  8
DRD
 10
2.4605
 20
1.3530
 30
 0.0
 42
1.0
  0
SEQEND
  8
DRD
  0
POLYLINE
  8
DRD
 66
      1
 70
1
 40
0.0050
 41
0.0050
  0
VERTEX
  8
DRD
 10
2.4805
 20
1.3280
 30
 0.0
 42
1.0
  0
VERTEX
  8
DRD
 10
2.4855
 20
1.3280
 30
 0.0
 42
1.0
  0
SEQEND
  8
DRD
  0
POLYLINE
  8
DRD
 66
      1
 70
0
 40
0.0100
 41
0.0100
  0
VERTEX
  8
DRD
 10
2.4330
 20
1.3280
 30
 0.0
  0
VERTEX
  8
DRD
 10
2.4580
 20
1.3530
 30
 0.0
  0
SEQEND
  8
DRD
  0
POLYLINE
  8
DRD
 66
      1
 70
1
 40
0.0050
 41
0.0050
  0
VERTEX
  8
DRD
 10
2.4305
 20
1.3280
 30
 0.0
 42
1.0
  0
VERTEX
  8
DRD
 10
2.4355
 20
1.3280
 30
 0.0
 42
1.0
  0
SEQEND
  8
DRD
  0
POLYLINE
  8
DRD
 66
      1
 70
1
 40
0.0050
 41
0.0050
  0
VERTEX
  8
DRD
 10
2.4555
 20
1.3530
 30
 0.0
 42
1.0
  0
VERTEX
  8
DRD
 10
2.4605
 20
1.3530
 30
 0.0
 42
1.0
  0
SEQEND
  8
DRD
  0
POLYLINE
  8
DRL
 66
      1
 70
1
 40
0.0090
 41
0.0090
  0
VERTEX
  8
DRL
 10
2.4540
 20
1.3280
 30
 0.0
 42
1.0
  0
VERTEX
  8
DRL
 10
2.4620
 20
1.3280
 30
 0.0
 42
1.0
  0
SEQEND
  8
DRL
  0
POLYLINE
  8
DRD
 66
      1
 70
0
 40
0.0100
 41
0.0100
  0
VERTEX
  8
DRD
 10
2.5420
 20
1.3030
 30
 0.0
  0
VERTEX
  8
DRD
 10
2.5170
 20
1.3280
 30
 0.0
  0
SEQEND
  8
DRD
  0
POLYLINE
  8
DRD
 66
      1
 70
1
 40
0.0050
 41
0.0050
  0
VERTEX
  8
DRD
 10
2.5395
 20
1.3030
 30
 0.0
 42
1.0
  0
VERTEX
  8
DRD
 10
2.5445
 20
1.3030
 30
 0.0
 42
1.0
  0
SEQEND
  8
DRD
  0
POLYLINE
  8
DRD
 66
      1
 70
1
 40
0.0050
 41
0.0050
  0
VERTEX
  8
DRD
 10
2.5145
 20
1.3280
 30
 0.0
 42
1.0
  0
VERTEX
  8
DRD
 10
2.5195
 20
1.3280
 30
 0.0
 42
1.0
  0
SEQEND
  8
DRD
  0
POLYLINE
  8
DRD
 66
      1
 70
0
 40
0.0100
 41
0.0100
  0
VERTEX
  8
DRD
 10
2.5670
 20
1.3280
 30
 0.0
  0
VERTEX
  8
DRD
 10
2.5420
 20
1.3030
 30
 0.0
  0
SEQEND
  8
DRD
  0
POLYLINE
  8
DRD
 66
      1
 70
1
 40
0.0050
 41
0.0050
  0
VERTEX
  8
DRD
 10
2.5645
 20
1.3280
 30
 0.0
 42
1.0
  0
VERTEX
  8
DRD
 10
2.5695
 20
1.3280
 30
 0.0
 42
1.0
  0
SEQEND
  8
DRD
  0
POLYLINE
  8
DRD
 66
      1
 70
1
 40
0.0050
 41
0.0050
  0
VERTEX
  8
DRD
 10
2.5395
 20
1.3030
 30
 0.0
 42
1.0
  0
VERTEX
  8
DRD
 10
2.5445
 20
1.3030
 30
 0.0
 42
1.0
  0
SEQEND
  8
DRD
  0
POLYLINE
  8
DRD
 66
      1
 70
0
 40
0.0100
 41
0.0100
  0
VERTEX
  8
DRD
 10
2.5420
 20
1.3530
 30
 0.0
  0
VERTEX
  8
DRD
 10
2.5670
 20
1.3280
 30
 0.0
  0
SEQEND
  8
DRD
  0
POLYLINE
  8
DRD
 66
      1
 70
1
 40
0.0050
 41
0.0050
  0
VERTEX
  8
DRD
 10
2.5395
 20
1.3530
 30
 0.0
 42
1.0
  0
VERTEX
  8
DRD
 10
2.5445
 20
1.3530
 30
 0.0
 42
1.0
  0
SEQEND
  8
DRD
  0
POLYLINE
  8
DRD
 66
      1
 70
1
 40
0.0050
 41
0.0050
  0
VERTEX
  8
DRD
 10
2.5645
 20
1.3280
 30
 0.0
 42
1.0
  0
VERTEX
  8
DRD
 10
2.5695
 20
1.3280
 30
 0.0
 42
1.0
  0
SEQEND
  8
DRD
  0
POLYLINE
  8
DRD
 66
      1
 70
0
 40
0.0100
 41
0.0100
  0
VERTEX
  8
DRD
 10
2.5170
 20
1.3280
 30
 0.0
  0
VERTEX
  8
DRD
 10
2.5420
 20
1.3530
 30
 0.0
  0
SEQEND
  8
DRD
  0
POLYLINE
  8
DRD
 66
      1
 70
1
 40
0.0050
 41
0.0050
  0
VERTEX
  8
DRD
 10
2.5145
 20
1.3280
 30
 0.0
 42
1.0
  0
VERTEX
  8
DRD
 10
2.5195
 20
1.3280
 30
 0.0
 42
1.0
  0
SEQEND
  8
DRD
  0
POLYLINE
  8
DRD
 66
      1
 70
1
 40
0.0050
 41
0.0050
  0
VERTEX
  8
DRD
 10
2.5395
 20
1.3530
 30
 0.0
 42
1.0
  0
VERTEX
  8
DRD
 10
2.5445
 20
1.3530
 30
 0.0
 42
1.0
  0
SEQEND
  8
DRD
  0
POLYLINE
  8
DRL
 66
      1
 70
1
 40
0.0090
 41
0.0090
  0
VERTEX
  8
DRL
 10
2.5380
 20
1.3280
 30
 0.0
 42
1.0
  0
VERTEX
  8
DRL
 10
2.5460
 20
1.3280
 30
 0.0
 42
1.0
  0
SEQEND
  8
DRL
  0
POLYLINE
  8
DRD
 66
      1
 70
0
 40
0.0100
 41
0.0100
  0
VERTEX
  8
DRD
 10
2.0250
 20
0.7830
 30
 0.0
  0
VERTEX
  8
DRD
 10
2.0000
 20
0.8080
 30
 0.0
  0
SEQEND
  8
DRD
  0
POLYLINE
  8
DRD
 66
      1
 70
1
 40
0.0050
 41
0.0050
  0
VERTEX
  8
DRD
 10
2.0225
 20
0.7830
 30
 0.0
 42
1.0
  0
VERTEX
  8
DRD
 10
2.0275
 20
0.7830
 30
 0.0
 42
1.0
  0
SEQEND
  8
DRD
  0
POLYLINE
  8
DRD
 66
      1
 70
1
 40
0.0050
 41
0.0050
  0
VERTEX
  8
DRD
 10
1.9975
 20
0.8080
 30
 0.0
 42
1.0
  0
VERTEX
  8
DRD
 10
2.0025
 20
0.8080
 30
 0.0
 42
1.0
  0
SEQEND
  8
DRD
  0
POLYLINE
  8
DRD
 66
      1
 70
0
 40
0.0100
 41
0.0100
  0
VERTEX
  8
DRD
 10
2.0500
 20
0.8080
 30
 0.0
  0
VERTEX
  8
DRD
 10
2.0250
 20
0.7830
 30
 0.0
  0
SEQEND
  8
DRD
  0
POLYLINE
  8
DRD
 66
      1
 70
1
 40
0.0050
 41
0.0050
  0
VERTEX
  8
DRD
 10
2.0475
 20
0.8080
 30
 0.0
 42
1.0
  0
VERTEX
  8
DRD
 10
2.0525
 20
0.8080
 30
 0.0
 42
1.0
  0
SEQEND
  8
DRD
  0
POLYLINE
  8
DRD
 66
      1
 70
1
 40
0.0050
 41
0.0050
  0
VERTEX
  8
DRD
 10
2.0225
 20
0.7830
 30
 0.0
 42
1.0
  0
VERTEX
  8
DRD
 10
2.0275
 20
0.7830
 30
 0.0
 42
1.0
  0
SEQEND
  8
DRD
  0
POLYLINE
  8
DRD
 66
      1
 70
0
 40
0.0100
 41
0.0100
  0
VERTEX
  8
DRD
 10
2.0250
 20
0.8330
 30
 0.0
  0
VERTEX
  8
DRD
 10
2.0500
 20
0.8080
 30
 0.0
  0
SEQEND
  8
DRD
  0
POLYLINE
  8
DRD
 66
      1
 70
1
 40
0.0050
 41
0.0050
  0
VERTEX
  8
DRD
 10
2.0225
 20
0.8330
 30
 0.0
 42
1.0
  0
VERTEX
  8
DRD
 10
2.0275
 20
0.8330
 30
 0.0
 42
1.0
  0
SEQEND
  8
DRD
  0
POLYLINE
  8
DRD
 66
      1
 70
1
 40
0.0050
 41
0.0050
  0
VERTEX
  8
DRD
 10
2.0475
 20
0.8080
 30
 0.0
 42
1.0
  0
VERTEX
  8
DRD
 10
2.0525
 20
0.8080
 30
 0.0
 42
1.0
  0
SEQEND
  8
DRD
  0
POLYLINE
  8
DRD
 66
      1
 70
0
 40
0.0100
 41
0.0100
  0
VERTEX
  8
DRD
 10
2.0000
 20
0.8080
 30
 0.0
  0
VERTEX
  8
DRD
 10
2.0250
 20
0.8330
 30
 0.0
  0
SEQEND
  8
DRD
  0
POLYLINE
  8
DRD
 66
      1
 70
1
 40
0.0050
 41
0.0050
  0
VERTEX
  8
DRD
 10
1.9975
 20
0.8080
 30
 0.0
 42
1.0
  0
VERTEX
  8
DRD
 10
2.0025
 20
0.8080
 30
 0.0
 42
1.0
  0
SEQEND
  8
DRD
  0
POLYLINE
  8
DRD
 66
      1
 70
1
 40
0.0050
 41
0.0050
  0
VERTEX
  8
DRD
 10
2.0225
 20
0.8330
 30
 0.0
 42
1.0
  0
VERTEX
  8
DRD
 10
2.0275
 20
0.8330
 30
 0.0
 42
1.0
  0
SEQEND
  8
DRD
  0
POLYLINE
  8
DRL
 66
      1
 70
1
 40
0.0090
 41
0.0090
  0
VERTEX
  8
DRL
 10
2.0210
 20
0.8080
 30
 0.0
 42
1.0
  0
VERTEX
  8
DRL
 10
2.0290
 20
0.8080
 30
 0.0
 42
1.0
  0
SEQEND
  8
DRL
  0
POLYLINE
  8
DRD
 66
      1
 70
0
 40
0.0100
 41
0.0100
  0
VERTEX
  8
DRD
 10
2.0680
 20
0.7830
 30
 0.0
  0
VERTEX
  8
DRD
 10
2.0430
 20
0.8080
 30
 0.0
  0
SEQEND
  8
DRD
  0
POLYLINE
  8
DRD
 66
      1
 70
1
 40
0.0050
 41
0.0050
  0
VERTEX
  8
DRD
 10
2.0655
 20
0.7830
 30
 0.0
 42
1.0
  0
VERTEX
  8
DRD
 10
2.0705
 20
0.7830
 30
 0.0
 42
1.0
  0
SEQEND
  8
DRD
  0
POLYLINE
  8
DRD
 66
      1
 70
1
 40
0.0050
 41
0.0050
  0
VERTEX
  8
DRD
 10
2.0405
 20
0.8080
 30
 0.0
 42
1.0
  0
VERTEX
  8
DRD
 10
2.0455
 20
0.8080
 30
 0.0
 42
1.0
  0
SEQEND
  8
DRD
  0
POLYLINE
  8
DRD
 66
      1
 70
0
 40
0.0100
 41
0.0100
  0
VERTEX
  8
DRD
 10
2.0930
 20
0.8080
 30
 0.0
  0
VERTEX
  8
DRD
 10
2.0680
 20
0.7830
 30
 0.0
  0
SEQEND
  8
DRD
  0
POLYLINE
  8
DRD
 66
      1
 70
1
 40
0.0050
 41
0.0050
  0
VERTEX
  8
DRD
 10
2.0905
 20
0.8080
 30
 0.0
 42
1.0
  0
VERTEX
  8
DRD
 10
2.0955
 20
0.8080
 30
 0.0
 42
1.0
  0
SEQEND
  8
DRD
  0
POLYLINE
  8
DRD
 66
      1
 70
1
 40
0.0050
 41
0.0050
  0
VERTEX
  8
DRD
 10
2.0655
 20
0.7830
 30
 0.0
 42
1.0
  0
VERTEX
  8
DRD
 10
2.0705
 20
0.7830
 30
 0.0
 42
1.0
  0
SEQEND
  8
DRD
  0
POLYLINE
  8
DRD
 66
      1
 70
0
 40
0.0100
 41
0.0100
  0
VERTEX
  8
DRD
 10
2.0680
 20
0.8330
 30
 0.0
  0
VERTEX
  8
DRD
 10
2.0930
 20
0.8080
 30
 0.0
  0
SEQEND
  8
DRD
  0
POLYLINE
  8
DRD
 66
      1
 70
1
 40
0.0050
 41
0.0050
  0
VERTEX
  8
DRD
 10
2.0655
 20
0.8330
 30
 0.0
 42
1.0
  0
VERTEX
  8
DRD
 10
2.0705
 20
0.8330
 30
 0.0
 42
1.0
  0
SEQEND
  8
DRD
  0
POLYLINE
  8
DRD
 66
      1
 70
1
 40
0.0050
 41
0.0050
  0
VERTEX
  8
DRD
 10
2.0905
 20
0.8080
 30
 0.0
 42
1.0
  0
VERTEX
  8
DRD
 10
2.0955
 20
0.8080
 30
 0.0
 42
1.0
  0
SEQEND
  8
DRD
  0
POLYLINE
  8
DRD
 66
      1
 70
0
 40
0.0100
 41
0.0100
  0
VERTEX
  8
DRD
 10
2.0430
 20
0.8080
 30
 0.0
  0
VERTEX
  8
DRD
 10
2.0680
 20
0.8330
 30
 0.0
  0
SEQEND
  8
DRD
  0
POLYLINE
  8
DRD
 66
      1
 70
1
 40
0.0050
 41
0.0050
  0
VERTEX
  8
DRD
 10
2.0405
 20
0.8080
 30
 0.0
 42
1.0
  0
VERTEX
  8
DRD
 10
2.0455
 20
0.8080
 30
 0.0
 42
1.0
  0
SEQEND
  8
DRD
  0
POLYLINE
  8
DRD
 66
      1
 70
1
 40
0.0050
 41
0.0050
  0
VERTEX
  8
DRD
 10
2.0655
 20
0.8330
 30
 0.0
 42
1.0
  0
VERTEX
  8
DRD
 10
2.0705
 20
0.8330
 30
 0.0
 42
1.0
  0
SEQEND
  8
DRD
  0
POLYLINE
  8
DRL
 66
      1
 70
1
 40
0.0090
 41
0.0090
  0
VERTEX
  8
DRL
 10
2.0640
 20
0.8080
 30
 0.0
 42
1.0
  0
VERTEX
  8
DRL
 10
2.0720
 20
0.8080
 30
 0.0
 42
1.0
  0
SEQEND
  8
DRL
  0
POLYLINE
  8
DRD
 66
      1
 70
0
 40
0.0100
 41
0.0100
  0
VERTEX
  8
DRD
 10
2.0620
 20
1.2460
 30
 0.0
  0
VERTEX
  8
DRD
 10
2.0370
 20
1.2710
 30
 0.0
  0
SEQEND
  8
DRD
  0
POLYLINE
  8
DRD
 66
      1
 70
1
 40
0.0050
 41
0.0050
  0
VERTEX
  8
DRD
 10
2.0595
 20
1.2460
 30
 0.0
 42
1.0
  0
VERTEX
  8
DRD
 10
2.0645
 20
1.2460
 30
 0.0
 42
1.0
  0
SEQEND
  8
DRD
  0
POLYLINE
  8
DRD
 66
      1
 70
1
 40
0.0050
 41
0.0050
  0
VERTEX
  8
DRD
 10
2.0345
 20
1.2710
 30
 0.0
 42
1.0
  0
VERTEX
  8
DRD
 10
2.0395
 20
1.2710
 30
 0.0
 42
1.0
  0
SEQEND
  8
DRD
  0
POLYLINE
  8
DRD
 66
      1
 70
0
 40
0.0100
 41
0.0100
  0
VERTEX
  8
DRD
 10
2.0870
 20
1.2710
 30
 0.0
  0
VERTEX
  8
DRD
 10
2.0620
 20
1.2460
 30
 0.0
  0
SEQEND
  8
DRD
  0
POLYLINE
  8
DRD
 66
      1
 70
1
 40
0.0050
 41
0.0050
  0
VERTEX
  8
DRD
 10
2.0845
 20
1.2710
 30
 0.0
 42
1.0
  0
VERTEX
  8
DRD
 10
2.0895
 20
1.2710
 30
 0.0
 42
1.0
  0
SEQEND
  8
DRD
  0
POLYLINE
  8
DRD
 66
      1
 70
1
 40
0.0050
 41
0.0050
  0
VERTEX
  8
DRD
 10
2.0595
 20
1.2460
 30
 0.0
 42
1.0
  0
VERTEX
  8
DRD
 10
2.0645
 20
1.2460
 30
 0.0
 42
1.0
  0
SEQEND
  8
DRD
  0
POLYLINE
  8
DRD
 66
      1
 70
0
 40
0.0100
 41
0.0100
  0
VERTEX
  8
DRD
 10
2.0620
 20
1.2960
 30
 0.0
  0
VERTEX
  8
DRD
 10
2.0870
 20
1.2710
 30
 0.0
  0
SEQEND
  8
DRD
  0
POLYLINE
  8
DRD
 66
      1
 70
1
 40
0.0050
 41
0.0050
  0
VERTEX
  8
DRD
 10
2.0595
 20
1.2960
 30
 0.0
 42
1.0
  0
VERTEX
  8
DRD
 10
2.0645
 20
1.2960
 30
 0.0
 42
1.0
  0
SEQEND
  8
DRD
  0
POLYLINE
  8
DRD
 66
      1
 70
1
 40
0.0050
 41
0.0050
  0
VERTEX
  8
DRD
 10
2.0845
 20
1.2710
 30
 0.0
 42
1.0
  0
VERTEX
  8
DRD
 10
2.0895
 20
1.2710
 30
 0.0
 42
1.0
  0
SEQEND
  8
DRD
  0
POLYLINE
  8
DRD
 66
      1
 70
0
 40
0.0100
 41
0.0100
  0
VERTEX
  8
DRD
 10
2.0370
 20
1.2710
 30
 0.0
  0
VERTEX
  8
DRD
 10
2.0620
 20
1.2960
 30
 0.0
  0
SEQEND
  8
DRD
  0
POLYLINE
  8
DRD
 66
      1
 70
1
 40
0.0050
 41
0.0050
  0
VERTEX
  8
DRD
 10
2.0345
 20
1.2710
 30
 0.0
 42
1.0
  0
VERTEX
  8
DRD
 10
2.0395
 20
1.2710
 30
 0.0
 42
1.0
  0
SEQEND
  8
DRD
  0
POLYLINE
  8
DRD
 66
      1
 70
1
 40
0.0050
 41
0.0050
  0
VERTEX
  8
DRD
 10
2.0595
 20
1.2960
 30
 0.0
 42
1.0
  0
VERTEX
  8
DRD
 10
2.0645
 20
1.2960
 30
 0.0
 42
1.0
  0
SEQEND
  8
DRD
  0
POLYLINE
  8
DRL
 66
      1
 70
1
 40
0.0090
 41
0.0090
  0
VERTEX
  8
DRL
 10
2.0580
 20
1.2710
 30
 0.0
 42
1.0
  0
VERTEX
  8
DRL
 10
2.0660
 20
1.2710
 30
 0.0
 42
1.0
  0
SEQEND
  8
DRL
  0
POLYLINE
  8
DRD
 66
      1
 70
0
 40
0.0100
 41
0.0100
  0
VERTEX
  8
DRD
 10
2.0210
 20
1.2460
 30
 0.0
  0
VERTEX
  8
DRD
 10
1.9960
 20
1.2710
 30
 0.0
  0
SEQEND
  8
DRD
  0
POLYLINE
  8
DRD
 66
      1
 70
1
 40
0.0050
 41
0.0050
  0
VERTEX
  8
DRD
 10
2.0185
 20
1.2460
 30
 0.0
 42
1.0
  0
VERTEX
  8
DRD
 10
2.0235
 20
1.2460
 30
 0.0
 42
1.0
  0
SEQEND
  8
DRD
  0
POLYLINE
  8
DRD
 66
      1
 70
1
 40
0.0050
 41
0.0050
  0
VERTEX
  8
DRD
 10
1.9935
 20
1.2710
 30
 0.0
 42
1.0
  0
VERTEX
  8
DRD
 10
1.9985
 20
1.2710
 30
 0.0
 42
1.0
  0
SEQEND
  8
DRD
  0
POLYLINE
  8
DRD
 66
      1
 70
0
 40
0.0100
 41
0.0100
  0
VERTEX
  8
DRD
 10
2.0460
 20
1.2710
 30
 0.0
  0
VERTEX
  8
DRD
 10
2.0210
 20
1.2460
 30
 0.0
  0
SEQEND
  8
DRD
  0
POLYLINE
  8
DRD
 66
      1
 70
1
 40
0.0050
 41
0.0050
  0
VERTEX
  8
DRD
 10
2.0435
 20
1.2710
 30
 0.0
 42
1.0
  0
VERTEX
  8
DRD
 10
2.0485
 20
1.2710
 30
 0.0
 42
1.0
  0
SEQEND
  8
DRD
  0
POLYLINE
  8
DRD
 66
      1
 70
1
 40
0.0050
 41
0.0050
  0
VERTEX
  8
DRD
 10
2.0185
 20
1.2460
 30
 0.0
 42
1.0
  0
VERTEX
  8
DRD
 10
2.0235
 20
1.2460
 30
 0.0
 42
1.0
  0
SEQEND
  8
DRD
  0
POLYLINE
  8
DRD
 66
      1
 70
0
 40
0.0100
 41
0.0100
  0
VERTEX
  8
DRD
 10
2.0210
 20
1.2960
 30
 0.0
  0
VERTEX
  8
DRD
 10
2.0460
 20
1.2710
 30
 0.0
  0
SEQEND
  8
DRD
  0
POLYLINE
  8
DRD
 66
      1
 70
1
 40
0.0050
 41
0.0050
  0
VERTEX
  8
DRD
 10
2.0185
 20
1.2960
 30
 0.0
 42
1.0
  0
VERTEX
  8
DRD
 10
2.0235
 20
1.2960
 30
 0.0
 42
1.0
  0
SEQEND
  8
DRD
  0
POLYLINE
  8
DRD
 66
      1
 70
1
 40
0.0050
 41
0.0050
  0
VERTEX
  8
DRD
 10
2.0435
 20
1.2710
 30
 0.0
 42
1.0
  0
VERTEX
  8
DRD
 10
2.0485
 20
1.2710
 30
 0.0
 42
1.0
  0
SEQEND
  8
DRD
  0
POLYLINE
  8
DRD
 66
      1
 70
0
 40
0.0100
 41
0.0100
  0
VERTEX
  8
DRD
 10
1.9960
 20
1.2710
 30
 0.0
  0
VERTEX
  8
DRD
 10
2.0210
 20
1.2960
 30
 0.0
  0
SEQEND
  8
DRD
  0
POLYLINE
  8
DRD
 66
      1
 70
1
 40
0.0050
 41
0.0050
  0
VERTEX
  8
DRD
 10
1.9935
 20
1.2710
 30
 0.0
 42
1.0
  0
VERTEX
  8
DRD
 10
1.9985
 20
1.2710
 30
 0.0
 42
1.0
  0
SEQEND
  8
DRD
  0
POLYLINE
  8
DRD
 66
      1
 70
1
 40
0.0050
 41
0.0050
  0
VERTEX
  8
DRD
 10
2.0185
 20
1.2960
 30
 0.0
 42
1.0
  0
VERTEX
  8
DRD
 10
2.0235
 20
1.2960
 30
 0.0
 42
1.0
  0
SEQEND
  8
DRD
  0
POLYLINE
  8
DRL
 66
      1
 70
1
 40
0.0090
 41
0.0090
  0
VERTEX
  8
DRL
 10
2.0170
 20
1.2710
 30
 0.0
 42
1.0
  0
VERTEX
  8
DRL
 10
2.0250
 20
1.2710
 30
 0.0
 42
1.0
  0
SEQEND
  8
DRL
  0
POLYLINE
  8
DRD
 66
      1
 70
0
 40
0.0100
 41
0.0100
  0
VERTEX
  8
DRD
 10
0.9490
 20
1.5760
 30
 0.0
  0
VERTEX
  8
DRD
 10
0.9240
 20
1.6010
 30
 0.0
  0
SEQEND
  8
DRD
  0
POLYLINE
  8
DRD
 66
      1
 70
1
 40
0.0050
 41
0.0050
  0
VERTEX
  8
DRD
 10
0.9465
 20
1.5760
 30
 0.0
 42
1.0
  0
VERTEX
  8
DRD
 10
0.9515
 20
1.5760
 30
 0.0
 42
1.0
  0
SEQEND
  8
DRD
  0
POLYLINE
  8
DRD
 66
      1
 70
1
 40
0.0050
 41
0.0050
  0
VERTEX
  8
DRD
 10
0.9215
 20
1.6010
 30
 0.0
 42
1.0
  0
VERTEX
  8
DRD
 10
0.9265
 20
1.6010
 30
 0.0
 42
1.0
  0
SEQEND
  8
DRD
  0
POLYLINE
  8
DRD
 66
      1
 70
0
 40
0.0100
 41
0.0100
  0
VERTEX
  8
DRD
 10
0.9740
 20
1.6010
 30
 0.0
  0
VERTEX
  8
DRD
 10
0.9490
 20
1.5760
 30
 0.0
  0
SEQEND
  8
DRD
  0
POLYLINE
  8
DRD
 66
      1
 70
1
 40
0.0050
 41
0.0050
  0
VERTEX
  8
DRD
 10
0.9715
 20
1.6010
 30
 0.0
 42
1.0
  0
VERTEX
  8
DRD
 10
0.9765
 20
1.6010
 30
 0.0
 42
1.0
  0
SEQEND
  8
DRD
  0
POLYLINE
  8
DRD
 66
      1
 70
1
 40
0.0050
 41
0.0050
  0
VERTEX
  8
DRD
 10
0.9465
 20
1.5760
 30
 0.0
 42
1.0
  0
VERTEX
  8
DRD
 10
0.9515
 20
1.5760
 30
 0.0
 42
1.0
  0
SEQEND
  8
DRD
  0
POLYLINE
  8
DRD
 66
      1
 70
0
 40
0.0100
 41
0.0100
  0
VERTEX
  8
DRD
 10
0.9490
 20
1.6260
 30
 0.0
  0
VERTEX
  8
DRD
 10
0.9740
 20
1.6010
 30
 0.0
  0
SEQEND
  8
DRD
  0
POLYLINE
  8
DRD
 66
      1
 70
1
 40
0.0050
 41
0.0050
  0
VERTEX
  8
DRD
 10
0.9465
 20
1.6260
 30
 0.0
 42
1.0
  0
VERTEX
  8
DRD
 10
0.9515
 20
1.6260
 30
 0.0
 42
1.0
  0
SEQEND
  8
DRD
  0
POLYLINE
  8
DRD
 66
      1
 70
1
 40
0.0050
 41
0.0050
  0
VERTEX
  8
DRD
 10
0.9715
 20
1.6010
 30
 0.0
 42
1.0
  0
VERTEX
  8
DRD
 10
0.9765
 20
1.6010
 30
 0.0
 42
1.0
  0
SEQEND
  8
DRD
  0
POLYLINE
  8
DRD
 66
      1
 70
0
 40
0.0100
 41
0.0100
  0
VERTEX
  8
DRD
 10
0.9240
 20
1.6010
 30
 0.0
  0
VERTEX
  8
DRD
 10
0.9490
 20
1.6260
 30
 0.0
  0
SEQEND
  8
DRD
  0
POLYLINE
  8
DRD
 66
      1
 70
1
 40
0.0050
 41
0.0050
  0
VERTEX
  8
DRD
 10
0.9215
 20
1.6010
 30
 0.0
 42
1.0
  0
VERTEX
  8
DRD
 10
0.9265
 20
1.6010
 30
 0.0
 42
1.0
  0
SEQEND
  8
DRD
  0
POLYLINE
  8
DRD
 66
      1
 70
1
 40
0.0050
 41
0.0050
  0
VERTEX
  8
DRD
 10
0.9465
 20
1.6260
 30
 0.0
 42
1.0
  0
VERTEX
  8
DRD
 10
0.9515
 20
1.6260
 30
 0.0
 42
1.0
  0
SEQEND
  8
DRD
  0
POLYLINE
  8
DRL
 66
      1
 70
1
 40
0.0090
 41
0.0090
  0
VERTEX
  8
DRL
 10
0.9450
 20
1.6010
 30
 0.0
 42
1.0
  0
VERTEX
  8
DRL
 10
0.9530
 20
1.6010
 30
 0.0
 42
1.0
  0
SEQEND
  8
DRL
  0
POLYLINE
  8
DRD
 66
      1
 70
0
 40
0.0100
 41
0.0100
  0
VERTEX
  8
DRD
 10
1.0470
 20
1.5760
 30
 0.0
  0
VERTEX
  8
DRD
 10
1.0220
 20
1.6010
 30
 0.0
  0
SEQEND
  8
DRD
  0
POLYLINE
  8
DRD
 66
      1
 70
1
 40
0.0050
 41
0.0050
  0
VERTEX
  8
DRD
 10
1.0445
 20
1.5760
 30
 0.0
 42
1.0
  0
VERTEX
  8
DRD
 10
1.0495
 20
1.5760
 30
 0.0
 42
1.0
  0
SEQEND
  8
DRD
  0
POLYLINE
  8
DRD
 66
      1
 70
1
 40
0.0050
 41
0.0050
  0
VERTEX
  8
DRD
 10
1.0195
 20
1.6010
 30
 0.0
 42
1.0
  0
VERTEX
  8
DRD
 10
1.0245
 20
1.6010
 30
 0.0
 42
1.0
  0
SEQEND
  8
DRD
  0
POLYLINE
  8
DRD
 66
      1
 70
0
 40
0.0100
 41
0.0100
  0
VERTEX
  8
DRD
 10
1.0720
 20
1.6010
 30
 0.0
  0
VERTEX
  8
DRD
 10
1.0470
 20
1.5760
 30
 0.0
  0
SEQEND
  8
DRD
  0
POLYLINE
  8
DRD
 66
      1
 70
1
 40
0.0050
 41
0.0050
  0
VERTEX
  8
DRD
 10
1.0695
 20
1.6010
 30
 0.0
 42
1.0
  0
VERTEX
  8
DRD
 10
1.0745
 20
1.6010
 30
 0.0
 42
1.0
  0
SEQEND
  8
DRD
  0
POLYLINE
  8
DRD
 66
      1
 70
1
 40
0.0050
 41
0.0050
  0
VERTEX
  8
DRD
 10
1.0445
 20
1.5760
 30
 0.0
 42
1.0
  0
VERTEX
  8
DRD
 10
1.0495
 20
1.5760
 30
 0.0
 42
1.0
  0
SEQEND
  8
DRD
  0
POLYLINE
  8
DRD
 66
      1
 70
0
 40
0.0100
 41
0.0100
  0
VERTEX
  8
DRD
 10
1.0470
 20
1.6260
 30
 0.0
  0
VERTEX
  8
DRD
 10
1.0720
 20
1.6010
 30
 0.0
  0
SEQEND
  8
DRD
  0
POLYLINE
  8
DRD
 66
      1
 70
1
 40
0.0050
 41
0.0050
  0
VERTEX
  8
DRD
 10
1.0445
 20
1.6260
 30
 0.0
 42
1.0
  0
VERTEX
  8
DRD
 10
1.0495
 20
1.6260
 30
 0.0
 42
1.0
  0
SEQEND
  8
DRD
  0
POLYLINE
  8
DRD
 66
      1
 70
1
 40
0.0050
 41
0.0050
  0
VERTEX
  8
DRD
 10
1.0695
 20
1.6010
 30
 0.0
 42
1.0
  0
VERTEX
  8
DRD
 10
1.0745
 20
1.6010
 30
 0.0
 42
1.0
  0
SEQEND
  8
DRD
  0
POLYLINE
  8
DRD
 66
      1
 70
0
 40
0.0100
 41
0.0100
  0
VERTEX
  8
DRD
 10
1.0220
 20
1.6010
 30
 0.0
  0
VERTEX
  8
DRD
 10
1.0470
 20
1.6260
 30
 0.0
  0
SEQEND
  8
DRD
  0
POLYLINE
  8
DRD
 66
      1
 70
1
 40
0.0050
 41
0.0050
  0
VERTEX
  8
DRD
 10
1.0195
 20
1.6010
 30
 0.0
 42
1.0
  0
VERTEX
  8
DRD
 10
1.0245
 20
1.6010
 30
 0.0
 42
1.0
  0
SEQEND
  8
DRD
  0
POLYLINE
  8
DRD
 66
      1
 70
1
 40
0.0050
 41
0.0050
  0
VERTEX
  8
DRD
 10
1.0445
 20
1.6260
 30
 0.0
 42
1.0
  0
VERTEX
  8
DRD
 10
1.0495
 20
1.6260
 30
 0.0
 42
1.0
  0
SEQEND
  8
DRD
  0
POLYLINE
  8
DRL
 66
      1
 70
1
 40
0.0090
 41
0.0090
  0
VERTEX
  8
DRL
 10
1.0430
 20
1.6010
 30
 0.0
 42
1.0
  0
VERTEX
  8
DRL
 10
1.0510
 20
1.6010
 30
 0.0
 42
1.0
  0
SEQEND
  8
DRL
  0
POLYLINE
  8
DRD
 66
      1
 70
0
 40
0.0100
 41
0.0100
  0
VERTEX
  8
DRD
 10
0.7060
 20
1.5780
 30
 0.0
  0
VERTEX
  8
DRD
 10
0.6810
 20
1.6030
 30
 0.0
  0
SEQEND
  8
DRD
  0
POLYLINE
  8
DRD
 66
      1
 70
1
 40
0.0050
 41
0.0050
  0
VERTEX
  8
DRD
 10
0.7035
 20
1.5780
 30
 0.0
 42
1.0
  0
VERTEX
  8
DRD
 10
0.7085
 20
1.5780
 30
 0.0
 42
1.0
  0
SEQEND
  8
DRD
  0
POLYLINE
  8
DRD
 66
      1
 70
1
 40
0.0050
 41
0.0050
  0
VERTEX
  8
DRD
 10
0.6785
 20
1.6030
 30
 0.0
 42
1.0
  0
VERTEX
  8
DRD
 10
0.6835
 20
1.6030
 30
 0.0
 42
1.0
  0
SEQEND
  8
DRD
  0
POLYLINE
  8
DRD
 66
      1
 70
0
 40
0.0100
 41
0.0100
  0
VERTEX
  8
DRD
 10
0.7310
 20
1.6030
 30
 0.0
  0
VERTEX
  8
DRD
 10
0.7060
 20
1.5780
 30
 0.0
  0
SEQEND
  8
DRD
  0
POLYLINE
  8
DRD
 66
      1
 70
1
 40
0.0050
 41
0.0050
  0
VERTEX
  8
DRD
 10
0.7285
 20
1.6030
 30
 0.0
 42
1.0
  0
VERTEX
  8
DRD
 10
0.7335
 20
1.6030
 30
 0.0
 42
1.0
  0
SEQEND
  8
DRD
  0
POLYLINE
  8
DRD
 66
      1
 70
1
 40
0.0050
 41
0.0050
  0
VERTEX
  8
DRD
 10
0.7035
 20
1.5780
 30
 0.0
 42
1.0
  0
VERTEX
  8
DRD
 10
0.7085
 20
1.5780
 30
 0.0
 42
1.0
  0
SEQEND
  8
DRD
  0
POLYLINE
  8
DRD
 66
      1
 70
0
 40
0.0100
 41
0.0100
  0
VERTEX
  8
DRD
 10
0.7060
 20
1.6280
 30
 0.0
  0
VERTEX
  8
DRD
 10
0.7310
 20
1.6030
 30
 0.0
  0
SEQEND
  8
DRD
  0
POLYLINE
  8
DRD
 66
      1
 70
1
 40
0.0050
 41
0.0050
  0
VERTEX
  8
DRD
 10
0.7035
 20
1.6280
 30
 0.0
 42
1.0
  0
VERTEX
  8
DRD
 10
0.7085
 20
1.6280
 30
 0.0
 42
1.0
  0
SEQEND
  8
DRD
  0
POLYLINE
  8
DRD
 66
      1
 70
1
 40
0.0050
 41
0.0050
  0
VERTEX
  8
DRD
 10
0.7285
 20
1.6030
 30
 0.0
 42
1.0
  0
VERTEX
  8
DRD
 10
0.7335
 20
1.6030
 30
 0.0
 42
1.0
  0
SEQEND
  8
DRD
  0
POLYLINE
  8
DRD
 66
      1
 70
0
 40
0.0100
 41
0.0100
  0
VERTEX
  8
DRD
 10
0.6810
 20
1.6030
 30
 0.0
  0
VERTEX
  8
DRD
 10
0.7060
 20
1.6280
 30
 0.0
  0
SEQEND
  8
DRD
  0
POLYLINE
  8
DRD
 66
      1
 70
1
 40
0.0050
 41
0.0050
  0
VERTEX
  8
DRD
 10
0.6785
 20
1.6030
 30
 0.0
 42
1.0
  0
VERTEX
  8
DRD
 10
0.6835
 20
1.6030
 30
 0.0
 42
1.0
  0
SEQEND
  8
DRD
  0
POLYLINE
  8
DRD
 66
      1
 70
1
 40
0.0050
 41
0.0050
  0
VERTEX
  8
DRD
 10
0.7035
 20
1.6280
 30
 0.0
 42
1.0
  0
VERTEX
  8
DRD
 10
0.7085
 20
1.6280
 30
 0.0
 42
1.0
  0
SEQEND
  8
DRD
  0
POLYLINE
  8
DRL
 66
      1
 70
1
 40
0.0090
 41
0.0090
  0
VERTEX
  8
DRL
 10
0.7020
 20
1.6030
 30
 0.0
 42
1.0
  0
VERTEX
  8
DRL
 10
0.7100
 20
1.6030
 30
 0.0
 42
1.0
  0
SEQEND
  8
DRL
  0
POLYLINE
  8
DRD
 66
      1
 70
0
 40
0.0100
 41
0.0100
  0
VERTEX
  8
DRD
 10
1.5460
 20
1.2140
 30
 0.0
  0
VERTEX
  8
DRD
 10
1.5210
 20
1.2390
 30
 0.0
  0
SEQEND
  8
DRD
  0
POLYLINE
  8
DRD
 66
      1
 70
1
 40
0.0050
 41
0.0050
  0
VERTEX
  8
DRD
 10
1.5435
 20
1.2140
 30
 0.0
 42
1.0
  0
VERTEX
  8
DRD
 10
1.5485
 20
1.2140
 30
 0.0
 42
1.0
  0
SEQEND
  8
DRD
  0
POLYLINE
  8
DRD
 66
      1
 70
1
 40
0.0050
 41
0.0050
  0
VERTEX
  8
DRD
 10
1.5185
 20
1.2390
 30
 0.0
 42
1.0
  0
VERTEX
  8
DRD
 10
1.5235
 20
1.2390
 30
 0.0
 42
1.0
  0
SEQEND
  8
DRD
  0
POLYLINE
  8
DRD
 66
      1
 70
0
 40
0.0100
 41
0.0100
  0
VERTEX
  8
DRD
 10
1.5710
 20
1.2390
 30
 0.0
  0
VERTEX
  8
DRD
 10
1.5460
 20
1.2140
 30
 0.0
  0
SEQEND
  8
DRD
  0
POLYLINE
  8
DRD
 66
      1
 70
1
 40
0.0050
 41
0.0050
  0
VERTEX
  8
DRD
 10
1.5685
 20
1.2390
 30
 0.0
 42
1.0
  0
VERTEX
  8
DRD
 10
1.5735
 20
1.2390
 30
 0.0
 42
1.0
  0
SEQEND
  8
DRD
  0
POLYLINE
  8
DRD
 66
      1
 70
1
 40
0.0050
 41
0.0050
  0
VERTEX
  8
DRD
 10
1.5435
 20
1.2140
 30
 0.0
 42
1.0
  0
VERTEX
  8
DRD
 10
1.5485
 20
1.2140
 30
 0.0
 42
1.0
  0
SEQEND
  8
DRD
  0
POLYLINE
  8
DRD
 66
      1
 70
0
 40
0.0100
 41
0.0100
  0
VERTEX
  8
DRD
 10
1.5460
 20
1.2640
 30
 0.0
  0
VERTEX
  8
DRD
 10
1.5710
 20
1.2390
 30
 0.0
  0
SEQEND
  8
DRD
  0
POLYLINE
  8
DRD
 66
      1
 70
1
 40
0.0050
 41
0.0050
  0
VERTEX
  8
DRD
 10
1.5435
 20
1.2640
 30
 0.0
 42
1.0
  0
VERTEX
  8
DRD
 10
1.5485
 20
1.2640
 30
 0.0
 42
1.0
  0
SEQEND
  8
DRD
  0
POLYLINE
  8
DRD
 66
      1
 70
1
 40
0.0050
 41
0.0050
  0
VERTEX
  8
DRD
 10
1.5685
 20
1.2390
 30
 0.0
 42
1.0
  0
VERTEX
  8
DRD
 10
1.5735
 20
1.2390
 30
 0.0
 42
1.0
  0
SEQEND
  8
DRD
  0
POLYLINE
  8
DRD
 66
      1
 70
0
 40
0.0100
 41
0.0100
  0
VERTEX
  8
DRD
 10
1.5210
 20
1.2390
 30
 0.0
  0
VERTEX
  8
DRD
 10
1.5460
 20
1.2640
 30
 0.0
  0
SEQEND
  8
DRD
  0
POLYLINE
  8
DRD
 66
      1
 70
1
 40
0.0050
 41
0.0050
  0
VERTEX
  8
DRD
 10
1.5185
 20
1.2390
 30
 0.0
 42
1.0
  0
VERTEX
  8
DRD
 10
1.5235
 20
1.2390
 30
 0.0
 42
1.0
  0
SEQEND
  8
DRD
  0
POLYLINE
  8
DRD
 66
      1
 70
1
 40
0.0050
 41
0.0050
  0
VERTEX
  8
DRD
 10
1.5435
 20
1.2640
 30
 0.0
 42
1.0
  0
VERTEX
  8
DRD
 10
1.5485
 20
1.2640
 30
 0.0
 42
1.0
  0
SEQEND
  8
DRD
  0
POLYLINE
  8
DRL
 66
      1
 70
1
 40
0.0090
 41
0.0090
  0
VERTEX
  8
DRL
 10
1.5420
 20
1.2390
 30
 0.0
 42
1.0
  0
VERTEX
  8
DRL
 10
1.5500
 20
1.2390
 30
 0.0
 42
1.0
  0
SEQEND
  8
DRL
  0
POLYLINE
  8
DRD
 66
      1
 70
0
 40
0.0100
 41
0.0100
  0
VERTEX
  8
DRD
 10
1.5500
 20
0.7620
 30
 0.0
  0
VERTEX
  8
DRD
 10
1.5250
 20
0.7870
 30
 0.0
  0
SEQEND
  8
DRD
  0
POLYLINE
  8
DRD
 66
      1
 70
1
 40
0.0050
 41
0.0050
  0
VERTEX
  8
DRD
 10
1.5475
 20
0.7620
 30
 0.0
 42
1.0
  0
VERTEX
  8
DRD
 10
1.5525
 20
0.7620
 30
 0.0
 42
1.0
  0
SEQEND
  8
DRD
  0
POLYLINE
  8
DRD
 66
      1
 70
1
 40
0.0050
 41
0.0050
  0
VERTEX
  8
DRD
 10
1.5225
 20
0.7870
 30
 0.0
 42
1.0
  0
VERTEX
  8
DRD
 10
1.5275
 20
0.7870
 30
 0.0
 42
1.0
  0
SEQEND
  8
DRD
  0
POLYLINE
  8
DRD
 66
      1
 70
0
 40
0.0100
 41
0.0100
  0
VERTEX
  8
DRD
 10
1.5750
 20
0.7870
 30
 0.0
  0
VERTEX
  8
DRD
 10
1.5500
 20
0.7620
 30
 0.0
  0
SEQEND
  8
DRD
  0
POLYLINE
  8
DRD
 66
      1
 70
1
 40
0.0050
 41
0.0050
  0
VERTEX
  8
DRD
 10
1.5725
 20
0.7870
 30
 0.0
 42
1.0
  0
VERTEX
  8
DRD
 10
1.5775
 20
0.7870
 30
 0.0
 42
1.0
  0
SEQEND
  8
DRD
  0
POLYLINE
  8
DRD
 66
      1
 70
1
 40
0.0050
 41
0.0050
  0
VERTEX
  8
DRD
 10
1.5475
 20
0.7620
 30
 0.0
 42
1.0
  0
VERTEX
  8
DRD
 10
1.5525
 20
0.7620
 30
 0.0
 42
1.0
  0
SEQEND
  8
DRD
  0
POLYLINE
  8
DRD
 66
      1
 70
0
 40
0.0100
 41
0.0100
  0
VERTEX
  8
DRD
 10
1.5500
 20
0.8120
 30
 0.0
  0
VERTEX
  8
DRD
 10
1.5750
 20
0.7870
 30
 0.0
  0
SEQEND
  8
DRD
  0
POLYLINE
  8
DRD
 66
      1
 70
1
 40
0.0050
 41
0.0050
  0
VERTEX
  8
DRD
 10
1.5475
 20
0.8120
 30
 0.0
 42
1.0
  0
VERTEX
  8
DRD
 10
1.5525
 20
0.8120
 30
 0.0
 42
1.0
  0
SEQEND
  8
DRD
  0
POLYLINE
  8
DRD
 66
      1
 70
1
 40
0.0050
 41
0.0050
  0
VERTEX
  8
DRD
 10
1.5725
 20
0.7870
 30
 0.0
 42
1.0
  0
VERTEX
  8
DRD
 10
1.5775
 20
0.7870
 30
 0.0
 42
1.0
  0
SEQEND
  8
DRD
  0
POLYLINE
  8
DRD
 66
      1
 70
0
 40
0.0100
 41
0.0100
  0
VERTEX
  8
DRD
 10
1.5250
 20
0.7870
 30
 0.0
  0
VERTEX
  8
DRD
 10
1.5500
 20
0.8120
 30
 0.0
  0
SEQEND
  8
DRD
  0
POLYLINE
  8
DRD
 66
      1
 70
1
 40
0.0050
 41
0.0050
  0
VERTEX
  8
DRD
 10
1.5225
 20
0.7870
 30
 0.0
 42
1.0
  0
VERTEX
  8
DRD
 10
1.5275
 20
0.7870
 30
 0.0
 42
1.0
  0
SEQEND
  8
DRD
  0
POLYLINE
  8
DRD
 66
      1
 70
1
 40
0.0050
 41
0.0050
  0
VERTEX
  8
DRD
 10
1.5475
 20
0.8120
 30
 0.0
 42
1.0
  0
VERTEX
  8
DRD
 10
1.5525
 20
0.8120
 30
 0.0
 42
1.0
  0
SEQEND
  8
DRD
  0
POLYLINE
  8
DRL
 66
      1
 70
1
 40
0.0090
 41
0.0090
  0
VERTEX
  8
DRL
 10
1.5460
 20
0.7870
 30
 0.0
 42
1.0
  0
VERTEX
  8
DRL
 10
1.5540
 20
0.7870
 30
 0.0
 42
1.0
  0
SEQEND
  8
DRL
  0
POLYLINE
  8
DRD
 66
      1
 70
0
 40
0.0100
 41
0.0100
  0
VERTEX
  8
DRD
 10
1.7780
 20
0.4660
 30
 0.0
  0
VERTEX
  8
DRD
 10
1.7530
 20
0.4910
 30
 0.0
  0
SEQEND
  8
DRD
  0
POLYLINE
  8
DRD
 66
      1
 70
1
 40
0.0050
 41
0.0050
  0
VERTEX
  8
DRD
 10
1.7755
 20
0.4660
 30
 0.0
 42
1.0
  0
VERTEX
  8
DRD
 10
1.7805
 20
0.4660
 30
 0.0
 42
1.0
  0
SEQEND
  8
DRD
  0
POLYLINE
  8
DRD
 66
      1
 70
1
 40
0.0050
 41
0.0050
  0
VERTEX
  8
DRD
 10
1.7505
 20
0.4910
 30
 0.0
 42
1.0
  0
VERTEX
  8
DRD
 10
1.7555
 20
0.4910
 30
 0.0
 42
1.0
  0
SEQEND
  8
DRD
  0
POLYLINE
  8
DRD
 66
      1
 70
0
 40
0.0100
 41
0.0100
  0
VERTEX
  8
DRD
 10
1.8030
 20
0.4910
 30
 0.0
  0
VERTEX
  8
DRD
 10
1.7780
 20
0.4660
 30
 0.0
  0
SEQEND
  8
DRD
  0
POLYLINE
  8
DRD
 66
      1
 70
1
 40
0.0050
 41
0.0050
  0
VERTEX
  8
DRD
 10
1.8005
 20
0.4910
 30
 0.0
 42
1.0
  0
VERTEX
  8
DRD
 10
1.8055
 20
0.4910
 30
 0.0
 42
1.0
  0
SEQEND
  8
DRD
  0
POLYLINE
  8
DRD
 66
      1
 70
1
 40
0.0050
 41
0.0050
  0
VERTEX
  8
DRD
 10
1.7755
 20
0.4660
 30
 0.0
 42
1.0
  0
VERTEX
  8
DRD
 10
1.7805
 20
0.4660
 30
 0.0
 42
1.0
  0
SEQEND
  8
DRD
  0
POLYLINE
  8
DRD
 66
      1
 70
0
 40
0.0100
 41
0.0100
  0
VERTEX
  8
DRD
 10
1.7780
 20
0.5160
 30
 0.0
  0
VERTEX
  8
DRD
 10
1.8030
 20
0.4910
 30
 0.0
  0
SEQEND
  8
DRD
  0
POLYLINE
  8
DRD
 66
      1
 70
1
 40
0.0050
 41
0.0050
  0
VERTEX
  8
DRD
 10
1.7755
 20
0.5160
 30
 0.0
 42
1.0
  0
VERTEX
  8
DRD
 10
1.7805
 20
0.5160
 30
 0.0
 42
1.0
  0
SEQEND
  8
DRD
  0
POLYLINE
  8
DRD
 66
      1
 70
1
 40
0.0050
 41
0.0050
  0
VERTEX
  8
DRD
 10
1.8005
 20
0.4910
 30
 0.0
 42
1.0
  0
VERTEX
  8
DRD
 10
1.8055
 20
0.4910
 30
 0.0
 42
1.0
  0
SEQEND
  8
DRD
  0
POLYLINE
  8
DRD
 66
      1
 70
0
 40
0.0100
 41
0.0100
  0
VERTEX
  8
DRD
 10
1.7530
 20
0.4910
 30
 0.0
  0
VERTEX
  8
DRD
 10
1.7780
 20
0.5160
 30
 0.0
  0
SEQEND
  8
DRD
  0
POLYLINE
  8
DRD
 66
      1
 70
1
 40
0.0050
 41
0.0050
  0
VERTEX
  8
DRD
 10
1.7505
 20
0.4910
 30
 0.0
 42
1.0
  0
VERTEX
  8
DRD
 10
1.7555
 20
0.4910
 30
 0.0
 42
1.0
  0
SEQEND
  8
DRD
  0
POLYLINE
  8
DRD
 66
      1
 70
1
 40
0.0050
 41
0.0050
  0
VERTEX
  8
DRD
 10
1.7755
 20
0.5160
 30
 0.0
 42
1.0
  0
VERTEX
  8
DRD
 10
1.7805
 20
0.5160
 30
 0.0
 42
1.0
  0
SEQEND
  8
DRD
  0
POLYLINE
  8
DRL
 66
      1
 70
1
 40
0.0090
 41
0.0090
  0
VERTEX
  8
DRL
 10
1.7740
 20
0.4910
 30
 0.0
 42
1.0
  0
VERTEX
  8
DRL
 10
1.7820
 20
0.4910
 30
 0.0
 42
1.0
  0
SEQEND
  8
DRL
  0
POLYLINE
  8
DRD
 66
      1
 70
0
 40
0.0100
 41
0.0100
  0
VERTEX
  8
DRD
 10
1.8350
 20
0.4660
 30
 0.0
  0
VERTEX
  8
DRD
 10
1.8100
 20
0.4910
 30
 0.0
  0
SEQEND
  8
DRD
  0
POLYLINE
  8
DRD
 66
      1
 70
1
 40
0.0050
 41
0.0050
  0
VERTEX
  8
DRD
 10
1.8325
 20
0.4660
 30
 0.0
 42
1.0
  0
VERTEX
  8
DRD
 10
1.8375
 20
0.4660
 30
 0.0
 42
1.0
  0
SEQEND
  8
DRD
  0
POLYLINE
  8
DRD
 66
      1
 70
1
 40
0.0050
 41
0.0050
  0
VERTEX
  8
DRD
 10
1.8075
 20
0.4910
 30
 0.0
 42
1.0
  0
VERTEX
  8
DRD
 10
1.8125
 20
0.4910
 30
 0.0
 42
1.0
  0
SEQEND
  8
DRD
  0
POLYLINE
  8
DRD
 66
      1
 70
0
 40
0.0100
 41
0.0100
  0
VERTEX
  8
DRD
 10
1.8600
 20
0.4910
 30
 0.0
  0
VERTEX
  8
DRD
 10
1.8350
 20
0.4660
 30
 0.0
  0
SEQEND
  8
DRD
  0
POLYLINE
  8
DRD
 66
      1
 70
1
 40
0.0050
 41
0.0050
  0
VERTEX
  8
DRD
 10
1.8575
 20
0.4910
 30
 0.0
 42
1.0
  0
VERTEX
  8
DRD
 10
1.8625
 20
0.4910
 30
 0.0
 42
1.0
  0
SEQEND
  8
DRD
  0
POLYLINE
  8
DRD
 66
      1
 70
1
 40
0.0050
 41
0.0050
  0
VERTEX
  8
DRD
 10
1.8325
 20
0.4660
 30
 0.0
 42
1.0
  0
VERTEX
  8
DRD
 10
1.8375
 20
0.4660
 30
 0.0
 42
1.0
  0
SEQEND
  8
DRD
  0
POLYLINE
  8
DRD
 66
      1
 70
0
 40
0.0100
 41
0.0100
  0
VERTEX
  8
DRD
 10
1.8350
 20
0.5160
 30
 0.0
  0
VERTEX
  8
DRD
 10
1.8600
 20
0.4910
 30
 0.0
  0
SEQEND
  8
DRD
  0
POLYLINE
  8
DRD
 66
      1
 70
1
 40
0.0050
 41
0.0050
  0
VERTEX
  8
DRD
 10
1.8325
 20
0.5160
 30
 0.0
 42
1.0
  0
VERTEX
  8
DRD
 10
1.8375
 20
0.5160
 30
 0.0
 42
1.0
  0
SEQEND
  8
DRD
  0
POLYLINE
  8
DRD
 66
      1
 70
1
 40
0.0050
 41
0.0050
  0
VERTEX
  8
DRD
 10
1.8575
 20
0.4910
 30
 0.0
 42
1.0
  0
VERTEX
  8
DRD
 10
1.8625
 20
0.4910
 30
 0.0
 42
1.0
  0
SEQEND
  8
DRD
  0
POLYLINE
  8
DRD
 66
      1
 70
0
 40
0.0100
 41
0.0100
  0
VERTEX
  8
DRD
 10
1.8100
 20
0.4910
 30
 0.0
  0
VERTEX
  8
DRD
 10
1.8350
 20
0.5160
 30
 0.0
  0
SEQEND
  8
DRD
  0
POLYLINE
  8
DRD
 66
      1
 70
1
 40
0.0050
 41
0.0050
  0
VERTEX
  8
DRD
 10
1.8075
 20
0.4910
 30
 0.0
 42
1.0
  0
VERTEX
  8
DRD
 10
1.8125
 20
0.4910
 30
 0.0
 42
1.0
  0
SEQEND
  8
DRD
  0
POLYLINE
  8
DRD
 66
      1
 70
1
 40
0.0050
 41
0.0050
  0
VERTEX
  8
DRD
 10
1.8325
 20
0.5160
 30
 0.0
 42
1.0
  0
VERTEX
  8
DRD
 10
1.8375
 20
0.5160
 30
 0.0
 42
1.0
  0
SEQEND
  8
DRD
  0
POLYLINE
  8
DRL
 66
      1
 70
1
 40
0.0090
 41
0.0090
  0
VERTEX
  8
DRL
 10
1.8310
 20
0.4910
 30
 0.0
 42
1.0
  0
VERTEX
  8
DRL
 10
1.8390
 20
0.4910
 30
 0.0
 42
1.0
  0
SEQEND
  8
DRL
  0
POLYLINE
  8
DRD
 66
      1
 70
0
 40
0.0100
 41
0.0100
  0
VERTEX
  8
DRD
 10
1.7420
 20
0.4300
 30
 0.0
  0
VERTEX
  8
DRD
 10
1.7170
 20
0.4550
 30
 0.0
  0
SEQEND
  8
DRD
  0
POLYLINE
  8
DRD
 66
      1
 70
1
 40
0.0050
 41
0.0050
  0
VERTEX
  8
DRD
 10
1.7395
 20
0.4300
 30
 0.0
 42
1.0
  0
VERTEX
  8
DRD
 10
1.7445
 20
0.4300
 30
 0.0
 42
1.0
  0
SEQEND
  8
DRD
  0
POLYLINE
  8
DRD
 66
      1
 70
1
 40
0.0050
 41
0.0050
  0
VERTEX
  8
DRD
 10
1.7145
 20
0.4550
 30
 0.0
 42
1.0
  0
VERTEX
  8
DRD
 10
1.7195
 20
0.4550
 30
 0.0
 42
1.0
  0
SEQEND
  8
DRD
  0
POLYLINE
  8
DRD
 66
      1
 70
0
 40
0.0100
 41
0.0100
  0
VERTEX
  8
DRD
 10
1.7670
 20
0.4550
 30
 0.0
  0
VERTEX
  8
DRD
 10
1.7420
 20
0.4300
 30
 0.0
  0
SEQEND
  8
DRD
  0
POLYLINE
  8
DRD
 66
      1
 70
1
 40
0.0050
 41
0.0050
  0
VERTEX
  8
DRD
 10
1.7645
 20
0.4550
 30
 0.0
 42
1.0
  0
VERTEX
  8
DRD
 10
1.7695
 20
0.4550
 30
 0.0
 42
1.0
  0
SEQEND
  8
DRD
  0
POLYLINE
  8
DRD
 66
      1
 70
1
 40
0.0050
 41
0.0050
  0
VERTEX
  8
DRD
 10
1.7395
 20
0.4300
 30
 0.0
 42
1.0
  0
VERTEX
  8
DRD
 10
1.7445
 20
0.4300
 30
 0.0
 42
1.0
  0
SEQEND
  8
DRD
  0
POLYLINE
  8
DRD
 66
      1
 70
0
 40
0.0100
 41
0.0100
  0
VERTEX
  8
DRD
 10
1.7420
 20
0.4800
 30
 0.0
  0
VERTEX
  8
DRD
 10
1.7670
 20
0.4550
 30
 0.0
  0
SEQEND
  8
DRD
  0
POLYLINE
  8
DRD
 66
      1
 70
1
 40
0.0050
 41
0.0050
  0
VERTEX
  8
DRD
 10
1.7395
 20
0.4800
 30
 0.0
 42
1.0
  0
VERTEX
  8
DRD
 10
1.7445
 20
0.4800
 30
 0.0
 42
1.0
  0
SEQEND
  8
DRD
  0
POLYLINE
  8
DRD
 66
      1
 70
1
 40
0.0050
 41
0.0050
  0
VERTEX
  8
DRD
 10
1.7645
 20
0.4550
 30
 0.0
 42
1.0
  0
VERTEX
  8
DRD
 10
1.7695
 20
0.4550
 30
 0.0
 42
1.0
  0
SEQEND
  8
DRD
  0
POLYLINE
  8
DRD
 66
      1
 70
0
 40
0.0100
 41
0.0100
  0
VERTEX
  8
DRD
 10
1.7170
 20
0.4550
 30
 0.0
  0
VERTEX
  8
DRD
 10
1.7420
 20
0.4800
 30
 0.0
  0
SEQEND
  8
DRD
  0
POLYLINE
  8
DRD
 66
      1
 70
1
 40
0.0050
 41
0.0050
  0
VERTEX
  8
DRD
 10
1.7145
 20
0.4550
 30
 0.0
 42
1.0
  0
VERTEX
  8
DRD
 10
1.7195
 20
0.4550
 30
 0.0
 42
1.0
  0
SEQEND
  8
DRD
  0
POLYLINE
  8
DRD
 66
      1
 70
1
 40
0.0050
 41
0.0050
  0
VERTEX
  8
DRD
 10
1.7395
 20
0.4800
 30
 0.0
 42
1.0
  0
VERTEX
  8
DRD
 10
1.7445
 20
0.4800
 30
 0.0
 42
1.0
  0
SEQEND
  8
DRD
  0
POLYLINE
  8
DRL
 66
      1
 70
1
 40
0.0090
 41
0.0090
  0
VERTEX
  8
DRL
 10
1.7380
 20
0.4550
 30
 0.0
 42
1.0
  0
VERTEX
  8
DRL
 10
1.7460
 20
0.4550
 30
 0.0
 42
1.0
  0
SEQEND
  8
DRL
  0
POLYLINE
  8
DRD
 66
      1
 70
0
 40
0.0100
 41
0.0100
  0
VERTEX
  8
DRD
 10
1.8070
 20
0.4950
 30
 0.0
  0
VERTEX
  8
DRD
 10
1.7820
 20
0.5200
 30
 0.0
  0
SEQEND
  8
DRD
  0
POLYLINE
  8
DRD
 66
      1
 70
1
 40
0.0050
 41
0.0050
  0
VERTEX
  8
DRD
 10
1.8045
 20
0.4950
 30
 0.0
 42
1.0
  0
VERTEX
  8
DRD
 10
1.8095
 20
0.4950
 30
 0.0
 42
1.0
  0
SEQEND
  8
DRD
  0
POLYLINE
  8
DRD
 66
      1
 70
1
 40
0.0050
 41
0.0050
  0
VERTEX
  8
DRD
 10
1.7795
 20
0.5200
 30
 0.0
 42
1.0
  0
VERTEX
  8
DRD
 10
1.7845
 20
0.5200
 30
 0.0
 42
1.0
  0
SEQEND
  8
DRD
  0
POLYLINE
  8
DRD
 66
      1
 70
0
 40
0.0100
 41
0.0100
  0
VERTEX
  8
DRD
 10
1.8320
 20
0.5200
 30
 0.0
  0
VERTEX
  8
DRD
 10
1.8070
 20
0.4950
 30
 0.0
  0
SEQEND
  8
DRD
  0
POLYLINE
  8
DRD
 66
      1
 70
1
 40
0.0050
 41
0.0050
  0
VERTEX
  8
DRD
 10
1.8295
 20
0.5200
 30
 0.0
 42
1.0
  0
VERTEX
  8
DRD
 10
1.8345
 20
0.5200
 30
 0.0
 42
1.0
  0
SEQEND
  8
DRD
  0
POLYLINE
  8
DRD
 66
      1
 70
1
 40
0.0050
 41
0.0050
  0
VERTEX
  8
DRD
 10
1.8045
 20
0.4950
 30
 0.0
 42
1.0
  0
VERTEX
  8
DRD
 10
1.8095
 20
0.4950
 30
 0.0
 42
1.0
  0
SEQEND
  8
DRD
  0
POLYLINE
  8
DRD
 66
      1
 70
0
 40
0.0100
 41
0.0100
  0
VERTEX
  8
DRD
 10
1.8070
 20
0.5450
 30
 0.0
  0
VERTEX
  8
DRD
 10
1.8320
 20
0.5200
 30
 0.0
  0
SEQEND
  8
DRD
  0
POLYLINE
  8
DRD
 66
      1
 70
1
 40
0.0050
 41
0.0050
  0
VERTEX
  8
DRD
 10
1.8045
 20
0.5450
 30
 0.0
 42
1.0
  0
VERTEX
  8
DRD
 10
1.8095
 20
0.5450
 30
 0.0
 42
1.0
  0
SEQEND
  8
DRD
  0
POLYLINE
  8
DRD
 66
      1
 70
1
 40
0.0050
 41
0.0050
  0
VERTEX
  8
DRD
 10
1.8295
 20
0.5200
 30
 0.0
 42
1.0
  0
VERTEX
  8
DRD
 10
1.8345
 20
0.5200
 30
 0.0
 42
1.0
  0
SEQEND
  8
DRD
  0
POLYLINE
  8
DRD
 66
      1
 70
0
 40
0.0100
 41
0.0100
  0
VERTEX
  8
DRD
 10
1.7820
 20
0.5200
 30
 0.0
  0
VERTEX
  8
DRD
 10
1.8070
 20
0.5450
 30
 0.0
  0
SEQEND
  8
DRD
  0
POLYLINE
  8
DRD
 66
      1
 70
1
 40
0.0050
 41
0.0050
  0
VERTEX
  8
DRD
 10
1.7795
 20
0.5200
 30
 0.0
 42
1.0
  0
VERTEX
  8
DRD
 10
1.7845
 20
0.5200
 30
 0.0
 42
1.0
  0
SEQEND
  8
DRD
  0
POLYLINE
  8
DRD
 66
      1
 70
1
 40
0.0050
 41
0.0050
  0
VERTEX
  8
DRD
 10
1.8045
 20
0.5450
 30
 0.0
 42
1.0
  0
VERTEX
  8
DRD
 10
1.8095
 20
0.5450
 30
 0.0
 42
1.0
  0
SEQEND
  8
DRD
  0
POLYLINE
  8
DRL
 66
      1
 70
1
 40
0.0090
 41
0.0090
  0
VERTEX
  8
DRL
 10
1.8030
 20
0.5200
 30
 0.0
 42
1.0
  0
VERTEX
  8
DRL
 10
1.8110
 20
0.5200
 30
 0.0
 42
1.0
  0
SEQEND
  8
DRL
  0
POLYLINE
  8
DRD
 66
      1
 70
0
 40
0.0100
 41
0.0100
  0
VERTEX
  8
DRD
 10
1.8340
 20
0.5290
 30
 0.0
  0
VERTEX
  8
DRD
 10
1.8090
 20
0.5540
 30
 0.0
  0
SEQEND
  8
DRD
  0
POLYLINE
  8
DRD
 66
      1
 70
1
 40
0.0050
 41
0.0050
  0
VERTEX
  8
DRD
 10
1.8315
 20
0.5290
 30
 0.0
 42
1.0
  0
VERTEX
  8
DRD
 10
1.8365
 20
0.5290
 30
 0.0
 42
1.0
  0
SEQEND
  8
DRD
  0
POLYLINE
  8
DRD
 66
      1
 70
1
 40
0.0050
 41
0.0050
  0
VERTEX
  8
DRD
 10
1.8065
 20
0.5540
 30
 0.0
 42
1.0
  0
VERTEX
  8
DRD
 10
1.8115
 20
0.5540
 30
 0.0
 42
1.0
  0
SEQEND
  8
DRD
  0
POLYLINE
  8
DRD
 66
      1
 70
0
 40
0.0100
 41
0.0100
  0
VERTEX
  8
DRD
 10
1.8590
 20
0.5540
 30
 0.0
  0
VERTEX
  8
DRD
 10
1.8340
 20
0.5290
 30
 0.0
  0
SEQEND
  8
DRD
  0
POLYLINE
  8
DRD
 66
      1
 70
1
 40
0.0050
 41
0.0050
  0
VERTEX
  8
DRD
 10
1.8565
 20
0.5540
 30
 0.0
 42
1.0
  0
VERTEX
  8
DRD
 10
1.8615
 20
0.5540
 30
 0.0
 42
1.0
  0
SEQEND
  8
DRD
  0
POLYLINE
  8
DRD
 66
      1
 70
1
 40
0.0050
 41
0.0050
  0
VERTEX
  8
DRD
 10
1.8315
 20
0.5290
 30
 0.0
 42
1.0
  0
VERTEX
  8
DRD
 10
1.8365
 20
0.5290
 30
 0.0
 42
1.0
  0
SEQEND
  8
DRD
  0
POLYLINE
  8
DRD
 66
      1
 70
0
 40
0.0100
 41
0.0100
  0
VERTEX
  8
DRD
 10
1.8340
 20
0.5790
 30
 0.0
  0
VERTEX
  8
DRD
 10
1.8590
 20
0.5540
 30
 0.0
  0
SEQEND
  8
DRD
  0
POLYLINE
  8
DRD
 66
      1
 70
1
 40
0.0050
 41
0.0050
  0
VERTEX
  8
DRD
 10
1.8315
 20
0.5790
 30
 0.0
 42
1.0
  0
VERTEX
  8
DRD
 10
1.8365
 20
0.5790
 30
 0.0
 42
1.0
  0
SEQEND
  8
DRD
  0
POLYLINE
  8
DRD
 66
      1
 70
1
 40
0.0050
 41
0.0050
  0
VERTEX
  8
DRD
 10
1.8565
 20
0.5540
 30
 0.0
 42
1.0
  0
VERTEX
  8
DRD
 10
1.8615
 20
0.5540
 30
 0.0
 42
1.0
  0
SEQEND
  8
DRD
  0
POLYLINE
  8
DRD
 66
      1
 70
0
 40
0.0100
 41
0.0100
  0
VERTEX
  8
DRD
 10
1.8090
 20
0.5540
 30
 0.0
  0
VERTEX
  8
DRD
 10
1.8340
 20
0.5790
 30
 0.0
  0
SEQEND
  8
DRD
  0
POLYLINE
  8
DRD
 66
      1
 70
1
 40
0.0050
 41
0.0050
  0
VERTEX
  8
DRD
 10
1.8065
 20
0.5540
 30
 0.0
 42
1.0
  0
VERTEX
  8
DRD
 10
1.8115
 20
0.5540
 30
 0.0
 42
1.0
  0
SEQEND
  8
DRD
  0
POLYLINE
  8
DRD
 66
      1
 70
1
 40
0.0050
 41
0.0050
  0
VERTEX
  8
DRD
 10
1.8315
 20
0.5790
 30
 0.0
 42
1.0
  0
VERTEX
  8
DRD
 10
1.8365
 20
0.5790
 30
 0.0
 42
1.0
  0
SEQEND
  8
DRD
  0
POLYLINE
  8
DRL
 66
      1
 70
1
 40
0.0090
 41
0.0090
  0
VERTEX
  8
DRL
 10
1.8300
 20
0.5540
 30
 0.0
 42
1.0
  0
VERTEX
  8
DRL
 10
1.8380
 20
0.5540
 30
 0.0
 42
1.0
  0
SEQEND
  8
DRL
  0
POLYLINE
  8
DRD
 66
      1
 70
0
 40
0.0100
 41
0.0100
  0
VERTEX
  8
DRD
 10
1.7790
 20
0.5290
 30
 0.0
  0
VERTEX
  8
DRD
 10
1.7540
 20
0.5540
 30
 0.0
  0
SEQEND
  8
DRD
  0
POLYLINE
  8
DRD
 66
      1
 70
1
 40
0.0050
 41
0.0050
  0
VERTEX
  8
DRD
 10
1.7765
 20
0.5290
 30
 0.0
 42
1.0
  0
VERTEX
  8
DRD
 10
1.7815
 20
0.5290
 30
 0.0
 42
1.0
  0
SEQEND
  8
DRD
  0
POLYLINE
  8
DRD
 66
      1
 70
1
 40
0.0050
 41
0.0050
  0
VERTEX
  8
DRD
 10
1.7515
 20
0.5540
 30
 0.0
 42
1.0
  0
VERTEX
  8
DRD
 10
1.7565
 20
0.5540
 30
 0.0
 42
1.0
  0
SEQEND
  8
DRD
  0
POLYLINE
  8
DRD
 66
      1
 70
0
 40
0.0100
 41
0.0100
  0
VERTEX
  8
DRD
 10
1.8040
 20
0.5540
 30
 0.0
  0
VERTEX
  8
DRD
 10
1.7790
 20
0.5290
 30
 0.0
  0
SEQEND
  8
DRD
  0
POLYLINE
  8
DRD
 66
      1
 70
1
 40
0.0050
 41
0.0050
  0
VERTEX
  8
DRD
 10
1.8015
 20
0.5540
 30
 0.0
 42
1.0
  0
VERTEX
  8
DRD
 10
1.8065
 20
0.5540
 30
 0.0
 42
1.0
  0
SEQEND
  8
DRD
  0
POLYLINE
  8
DRD
 66
      1
 70
1
 40
0.0050
 41
0.0050
  0
VERTEX
  8
DRD
 10
1.7765
 20
0.5290
 30
 0.0
 42
1.0
  0
VERTEX
  8
DRD
 10
1.7815
 20
0.5290
 30
 0.0
 42
1.0
  0
SEQEND
  8
DRD
  0
POLYLINE
  8
DRD
 66
      1
 70
0
 40
0.0100
 41
0.0100
  0
VERTEX
  8
DRD
 10
1.7790
 20
0.5790
 30
 0.0
  0
VERTEX
  8
DRD
 10
1.8040
 20
0.5540
 30
 0.0
  0
SEQEND
  8
DRD
  0
POLYLINE
  8
DRD
 66
      1
 70
1
 40
0.0050
 41
0.0050
  0
VERTEX
  8
DRD
 10
1.7765
 20
0.5790
 30
 0.0
 42
1.0
  0
VERTEX
  8
DRD
 10
1.7815
 20
0.5790
 30
 0.0
 42
1.0
  0
SEQEND
  8
DRD
  0
POLYLINE
  8
DRD
 66
      1
 70
1
 40
0.0050
 41
0.0050
  0
VERTEX
  8
DRD
 10
1.8015
 20
0.5540
 30
 0.0
 42
1.0
  0
VERTEX
  8
DRD
 10
1.8065
 20
0.5540
 30
 0.0
 42
1.0
  0
SEQEND
  8
DRD
  0
POLYLINE
  8
DRD
 66
      1
 70
0
 40
0.0100
 41
0.0100
  0
VERTEX
  8
DRD
 10
1.7540
 20
0.5540
 30
 0.0
  0
VERTEX
  8
DRD
 10
1.7790
 20
0.5790
 30
 0.0
  0
SEQEND
  8
DRD
  0
POLYLINE
  8
DRD
 66
      1
 70
1
 40
0.0050
 41
0.0050
  0
VERTEX
  8
DRD
 10
1.7515
 20
0.5540
 30
 0.0
 42
1.0
  0
VERTEX
  8
DRD
 10
1.7565
 20
0.5540
 30
 0.0
 42
1.0
  0
SEQEND
  8
DRD
  0
POLYLINE
  8
DRD
 66
      1
 70
1
 40
0.0050
 41
0.0050
  0
VERTEX
  8
DRD
 10
1.7765
 20
0.5790
 30
 0.0
 42
1.0
  0
VERTEX
  8
DRD
 10
1.7815
 20
0.5790
 30
 0.0
 42
1.0
  0
SEQEND
  8
DRD
  0
POLYLINE
  8
DRL
 66
      1
 70
1
 40
0.0090
 41
0.0090
  0
VERTEX
  8
DRL
 10
1.7750
 20
0.5540
 30
 0.0
 42
1.0
  0
VERTEX
  8
DRL
 10
1.7830
 20
0.5540
 30
 0.0
 42
1.0
  0
SEQEND
  8
DRL
  0
POLYLINE
  8
DRD
 66
      1
 70
0
 40
0.0100
 41
0.0100
  0
VERTEX
  8
DRD
 10
1.7420
 20
0.3850
 30
 0.0
  0
VERTEX
  8
DRD
 10
1.7170
 20
0.4100
 30
 0.0
  0
SEQEND
  8
DRD
  0
POLYLINE
  8
DRD
 66
      1
 70
1
 40
0.0050
 41
0.0050
  0
VERTEX
  8
DRD
 10
1.7395
 20
0.3850
 30
 0.0
 42
1.0
  0
VERTEX
  8
DRD
 10
1.7445
 20
0.3850
 30
 0.0
 42
1.0
  0
SEQEND
  8
DRD
  0
POLYLINE
  8
DRD
 66
      1
 70
1
 40
0.0050
 41
0.0050
  0
VERTEX
  8
DRD
 10
1.7145
 20
0.4100
 30
 0.0
 42
1.0
  0
VERTEX
  8
DRD
 10
1.7195
 20
0.4100
 30
 0.0
 42
1.0
  0
SEQEND
  8
DRD
  0
POLYLINE
  8
DRD
 66
      1
 70
0
 40
0.0100
 41
0.0100
  0
VERTEX
  8
DRD
 10
1.7670
 20
0.4100
 30
 0.0
  0
VERTEX
  8
DRD
 10
1.7420
 20
0.3850
 30
 0.0
  0
SEQEND
  8
DRD
  0
POLYLINE
  8
DRD
 66
      1
 70
1
 40
0.0050
 41
0.0050
  0
VERTEX
  8
DRD
 10
1.7645
 20
0.4100
 30
 0.0
 42
1.0
  0
VERTEX
  8
DRD
 10
1.7695
 20
0.4100
 30
 0.0
 42
1.0
  0
SEQEND
  8
DRD
  0
POLYLINE
  8
DRD
 66
      1
 70
1
 40
0.0050
 41
0.0050
  0
VERTEX
  8
DRD
 10
1.7395
 20
0.3850
 30
 0.0
 42
1.0
  0
VERTEX
  8
DRD
 10
1.7445
 20
0.3850
 30
 0.0
 42
1.0
  0
SEQEND
  8
DRD
  0
POLYLINE
  8
DRD
 66
      1
 70
0
 40
0.0100
 41
0.0100
  0
VERTEX
  8
DRD
 10
1.7420
 20
0.4350
 30
 0.0
  0
VERTEX
  8
DRD
 10
1.7670
 20
0.4100
 30
 0.0
  0
SEQEND
  8
DRD
  0
POLYLINE
  8
DRD
 66
      1
 70
1
 40
0.0050
 41
0.0050
  0
VERTEX
  8
DRD
 10
1.7395
 20
0.4350
 30
 0.0
 42
1.0
  0
VERTEX
  8
DRD
 10
1.7445
 20
0.4350
 30
 0.0
 42
1.0
  0
SEQEND
  8
DRD
  0
POLYLINE
  8
DRD
 66
      1
 70
1
 40
0.0050
 41
0.0050
  0
VERTEX
  8
DRD
 10
1.7645
 20
0.4100
 30
 0.0
 42
1.0
  0
VERTEX
  8
DRD
 10
1.7695
 20
0.4100
 30
 0.0
 42
1.0
  0
SEQEND
  8
DRD
  0
POLYLINE
  8
DRD
 66
      1
 70
0
 40
0.0100
 41
0.0100
  0
VERTEX
  8
DRD
 10
1.7170
 20
0.4100
 30
 0.0
  0
VERTEX
  8
DRD
 10
1.7420
 20
0.4350
 30
 0.0
  0
SEQEND
  8
DRD
  0
POLYLINE
  8
DRD
 66
      1
 70
1
 40
0.0050
 41
0.0050
  0
VERTEX
  8
DRD
 10
1.7145
 20
0.4100
 30
 0.0
 42
1.0
  0
VERTEX
  8
DRD
 10
1.7195
 20
0.4100
 30
 0.0
 42
1.0
  0
SEQEND
  8
DRD
  0
POLYLINE
  8
DRD
 66
      1
 70
1
 40
0.0050
 41
0.0050
  0
VERTEX
  8
DRD
 10
1.7395
 20
0.4350
 30
 0.0
 42
1.0
  0
VERTEX
  8
DRD
 10
1.7445
 20
0.4350
 30
 0.0
 42
1.0
  0
SEQEND
  8
DRD
  0
POLYLINE
  8
DRL
 66
      1
 70
1
 40
0.0090
 41
0.0090
  0
VERTEX
  8
DRL
 10
1.7380
 20
0.4100
 30
 0.0
 42
1.0
  0
VERTEX
  8
DRL
 10
1.7460
 20
0.4100
 30
 0.0
 42
1.0
  0
SEQEND
  8
DRL
  0
POLYLINE
  8
DRD
 66
      1
 70
0
 40
0.0100
 41
0.0100
  0
VERTEX
  8
DRD
 10
1.4220
 20
0.5020
 30
 0.0
  0
VERTEX
  8
DRD
 10
1.3970
 20
0.5270
 30
 0.0
  0
SEQEND
  8
DRD
  0
POLYLINE
  8
DRD
 66
      1
 70
1
 40
0.0050
 41
0.0050
  0
VERTEX
  8
DRD
 10
1.4195
 20
0.5020
 30
 0.0
 42
1.0
  0
VERTEX
  8
DRD
 10
1.4245
 20
0.5020
 30
 0.0
 42
1.0
  0
SEQEND
  8
DRD
  0
POLYLINE
  8
DRD
 66
      1
 70
1
 40
0.0050
 41
0.0050
  0
VERTEX
  8
DRD
 10
1.3945
 20
0.5270
 30
 0.0
 42
1.0
  0
VERTEX
  8
DRD
 10
1.3995
 20
0.5270
 30
 0.0
 42
1.0
  0
SEQEND
  8
DRD
  0
POLYLINE
  8
DRD
 66
      1
 70
0
 40
0.0100
 41
0.0100
  0
VERTEX
  8
DRD
 10
1.4470
 20
0.5270
 30
 0.0
  0
VERTEX
  8
DRD
 10
1.4220
 20
0.5020
 30
 0.0
  0
SEQEND
  8
DRD
  0
POLYLINE
  8
DRD
 66
      1
 70
1
 40
0.0050
 41
0.0050
  0
VERTEX
  8
DRD
 10
1.4445
 20
0.5270
 30
 0.0
 42
1.0
  0
VERTEX
  8
DRD
 10
1.4495
 20
0.5270
 30
 0.0
 42
1.0
  0
SEQEND
  8
DRD
  0
POLYLINE
  8
DRD
 66
      1
 70
1
 40
0.0050
 41
0.0050
  0
VERTEX
  8
DRD
 10
1.4195
 20
0.5020
 30
 0.0
 42
1.0
  0
VERTEX
  8
DRD
 10
1.4245
 20
0.5020
 30
 0.0
 42
1.0
  0
SEQEND
  8
DRD
  0
POLYLINE
  8
DRD
 66
      1
 70
0
 40
0.0100
 41
0.0100
  0
VERTEX
  8
DRD
 10
1.4220
 20
0.5520
 30
 0.0
  0
VERTEX
  8
DRD
 10
1.4470
 20
0.5270
 30
 0.0
  0
SEQEND
  8
DRD
  0
POLYLINE
  8
DRD
 66
      1
 70
1
 40
0.0050
 41
0.0050
  0
VERTEX
  8
DRD
 10
1.4195
 20
0.5520
 30
 0.0
 42
1.0
  0
VERTEX
  8
DRD
 10
1.4245
 20
0.5520
 30
 0.0
 42
1.0
  0
SEQEND
  8
DRD
  0
POLYLINE
  8
DRD
 66
      1
 70
1
 40
0.0050
 41
0.0050
  0
VERTEX
  8
DRD
 10
1.4445
 20
0.5270
 30
 0.0
 42
1.0
  0
VERTEX
  8
DRD
 10
1.4495
 20
0.5270
 30
 0.0
 42
1.0
  0
SEQEND
  8
DRD
  0
POLYLINE
  8
DRD
 66
      1
 70
0
 40
0.0100
 41
0.0100
  0
VERTEX
  8
DRD
 10
1.3970
 20
0.5270
 30
 0.0
  0
VERTEX
  8
DRD
 10
1.4220
 20
0.5520
 30
 0.0
  0
SEQEND
  8
DRD
  0
POLYLINE
  8
DRD
 66
      1
 70
1
 40
0.0050
 41
0.0050
  0
VERTEX
  8
DRD
 10
1.3945
 20
0.5270
 30
 0.0
 42
1.0
  0
VERTEX
  8
DRD
 10
1.3995
 20
0.5270
 30
 0.0
 42
1.0
  0
SEQEND
  8
DRD
  0
POLYLINE
  8
DRD
 66
      1
 70
1
 40
0.0050
 41
0.0050
  0
VERTEX
  8
DRD
 10
1.4195
 20
0.5520
 30
 0.0
 42
1.0
  0
VERTEX
  8
DRD
 10
1.4245
 20
0.5520
 30
 0.0
 42
1.0
  0
SEQEND
  8
DRD
  0
POLYLINE
  8
DRL
 66
      1
 70
1
 40
0.0090
 41
0.0090
  0
VERTEX
  8
DRL
 10
1.4180
 20
0.5270
 30
 0.0
 42
1.0
  0
VERTEX
  8
DRL
 10
1.4260
 20
0.5270
 30
 0.0
 42
1.0
  0
SEQEND
  8
DRL
  0
POLYLINE
  8
SST
 66
      1
 70
0
 40
0.0080
 41
0.0080
  0
VERTEX
  8
SST
 10
2.5900
 20
0.4460
 30
 0.0
 42
0.9999999999999999
  0
VERTEX
  8
SST
 10
2.2820
 20
0.4460
 30
 0.0
  0
SEQEND
  8
SST
  0
POLYLINE
  8
SST
 66
      1
 70
1
 40
0.0040
 41
0.0040
  0
VERTEX
  8
SST
 10
2.5880
 20
0.4460
 30
 0.0
 42
1.0
  0
VERTEX
  8
SST
 10
2.5920
 20
0.4460
 30
 0.0
 42
1.0
  0
SEQEND
  8
SST
  0
POLYLINE
  8
SST
 66
      1
 70
1
 40
0.0040
 41
0.0040
  0
VERTEX
  8
SST
 10
2.2800
 20
0.4460
 30
 0.0
 42
1.0
  0
VERTEX
  8
SST
 10
2.2840
 20
0.4460
 30
 0.0
 42
1.0
  0
SEQEND
  8
SST
  0
POLYLINE
  8
SST
 66
      1
 70
0
 40
0.0080
 41
0.0080
  0
VERTEX
  8
SST
 10
2.2820
 20
0.4460
 30
 0.0
 42
0.9999999999999999
  0
VERTEX
  8
SST
 10
2.5900
 20
0.4460
 30
 0.0
  0
SEQEND
  8
SST
  0
POLYLINE
  8
SST
 66
      1
 70
1
 40
0.0040
 41
0.0040
  0
VERTEX
  8
SST
 10
2.2800
 20
0.4460
 30
 0.0
 42
1.0
  0
VERTEX
  8
SST
 10
2.2840
 20
0.4460
 30
 0.0
 42
1.0
  0
SEQEND
  8
SST
  0
POLYLINE
  8
SST
 66
      1
 70
1
 40
0.0040
 41
0.0040
  0
VERTEX
  8
SST
 10
2.5880
 20
0.4460
 30
 0.0
 42
1.0
  0
VERTEX
  8
SST
 10
2.5920
 20
0.4460
 30
 0.0
 42
1.0
  0
SEQEND
  8
SST
  0
POLYLINE
  8
SST
 66
      1
 70
1
 40
0.0060
 41
0.0060
  0
VERTEX
  8
SST
 10
1.5460
 20
1.1660
 30
 0.0
  0
VERTEX
  8
SST
 10
1.5230
 20
1.1570
 30
 0.0
  0
VERTEX
  8
SST
 10
1.5680
 20
1.1570
 30
 0.0
  0
VERTEX
  8
SST
 10
1.5460
 20
1.1660
 30
 0.0
  0
SEQEND
  8
SST
  0
POLYLINE
  8
SST
 66
      1
 70
1
 40
0.0030
 41
0.0030
  0
VERTEX
  8
SST
 10
1.5445
 20
1.1660
 30
 0.0
 42
1.0
  0
VERTEX
  8
SST
 10
1.5475
 20
1.1660
 30
 0.0
 42
1.0
  0
SEQEND
  8
SST
  0
POLYLINE
  8
SST
 66
      1
 70
1
 40
0.0030
 41
0.0030
  0
VERTEX
  8
SST
 10
1.5215
 20
1.1570
 30
 0.0
 42
1.0
  0
VERTEX
  8
SST
 10
1.5245
 20
1.1570
 30
 0.0
 42
1.0
  0
SEQEND
  8
SST
  0
POLYLINE
  8
SST
 66
      1
 70
1
 40
0.0030
 41
0.0030
  0
VERTEX
  8
SST
 10
1.5665
 20
1.1570
 30
 0.0
 42
1.0
  0
VERTEX
  8
SST
 10
1.5695
 20
1.1570
 30
 0.0
 42
1.0
  0
SEQEND
  8
SST
  0
POLYLINE
  8
SST
 66
      1
 70
1
 40
0.0030
 41
0.0030
  0
VERTEX
  8
SST
 10
1.5445
 20
1.1660
 30
 0.0
 42
1.0
  0
VERTEX
  8
SST
 10
1.5475
 20
1.1660
 30
 0.0
 42
1.0
  0
SEQEND
  8
SST
  0
POLYLINE
  8
SST
 66
      1
 70
1
 40
0.0060
 41
0.0060
  0
VERTEX
  8
SST
 10
1.7080
 20
0.6320
 30
 0.0
  0
VERTEX
  8
SST
 10
1.6730
 20
0.6320
 30
 0.0
  0
VERTEX
  8
SST
 10
1.6730
 20
0.6220
 30
 0.0
  0
VERTEX
  8
SST
 10
1.7080
 20
0.6220
 30
 0.0
  0
VERTEX
  8
SST
 10
1.7080
 20
0.6320
 30
 0.0
  0
SEQEND
  8
SST
  0
POLYLINE
  8
SST
 66
      1
 70
1
 40
0.0030
 41
0.0030
  0
VERTEX
  8
SST
 10
1.7065
 20
0.6320
 30
 0.0
 42
1.0
  0
VERTEX
  8
SST
 10
1.7095
 20
0.6320
 30
 0.0
 42
1.0
  0
SEQEND
  8
SST
  0
POLYLINE
  8
SST
 66
      1
 70
1
 40
0.0030
 41
0.0030
  0
VERTEX
  8
SST
 10
1.6715
 20
0.6320
 30
 0.0
 42
1.0
  0
VERTEX
  8
SST
 10
1.6745
 20
0.6320
 30
 0.0
 42
1.0
  0
SEQEND
  8
SST
  0
POLYLINE
  8
SST
 66
      1
 70
1
 40
0.0030
 41
0.0030
  0
VERTEX
  8
SST
 10
1.6715
 20
0.6220
 30
 0.0
 42
1.0
  0
VERTEX
  8
SST
 10
1.6745
 20
0.6220
 30
 0.0
 42
1.0
  0
SEQEND
  8
SST
  0
POLYLINE
  8
SST
 66
      1
 70
1
 40
0.0030
 41
0.0030
  0
VERTEX
  8
SST
 10
1.7065
 20
0.6220
 30
 0.0
 42
1.0
  0
VERTEX
  8
SST
 10
1.7095
 20
0.6220
 30
 0.0
 42
1.0
  0
SEQEND
  8
SST
  0
POLYLINE
  8
SST
 66
      1
 70
1
 40
0.0030
 41
0.0030
  0
VERTEX
  8
SST
 10
1.7065
 20
0.6320
 30
 0.0
 42
1.0
  0
VERTEX
  8
SST
 10
1.7095
 20
0.6320
 30
 0.0
 42
1.0
  0
SEQEND
  8
SST
  0
POLYLINE
  8
SST
 66
      1
 70
1
 40
0.0060
 41
0.0060
  0
VERTEX
  8
SST
 10
1.7160
 20
0.6750
 30
 0.0
  0
VERTEX
  8
SST
 10
1.6660
 20
0.6750
 30
 0.0
  0
VERTEX
  8
SST
 10
1.6660
 20
0.5800
 30
 0.0
  0
VERTEX
  8
SST
 10
1.7160
 20
0.5800
 30
 0.0
  0
VERTEX
  8
SST
 10
1.7160
 20
0.6750
 30
 0.0
  0
SEQEND
  8
SST
  0
POLYLINE
  8
SST
 66
      1
 70
1
 40
0.0030
 41
0.0030
  0
VERTEX
  8
SST
 10
1.7145
 20
0.6750
 30
 0.0
 42
1.0
  0
VERTEX
  8
SST
 10
1.7175
 20
0.6750
 30
 0.0
 42
1.0
  0
SEQEND
  8
SST
  0
POLYLINE
  8
SST
 66
      1
 70
1
 40
0.0030
 41
0.0030
  0
VERTEX
  8
SST
 10
1.6645
 20
0.6750
 30
 0.0
 42
1.0
  0
VERTEX
  8
SST
 10
1.6675
 20
0.6750
 30
 0.0
 42
1.0
  0
SEQEND
  8
SST
  0
POLYLINE
  8
SST
 66
      1
 70
1
 40
0.0030
 41
0.0030
  0
VERTEX
  8
SST
 10
1.6645
 20
0.5800
 30
 0.0
 42
1.0
  0
VERTEX
  8
SST
 10
1.6675
 20
0.5800
 30
 0.0
 42
1.0
  0
SEQEND
  8
SST
  0
POLYLINE
  8
SST
 66
      1
 70
1
 40
0.0030
 41
0.0030
  0
VERTEX
  8
SST
 10
1.7145
 20
0.5800
 30
 0.0
 42
1.0
  0
VERTEX
  8
SST
 10
1.7175
 20
0.5800
 30
 0.0
 42
1.0
  0
SEQEND
  8
SST
  0
POLYLINE
  8
SST
 66
      1
 70
1
 40
0.0030
 41
0.0030
  0
VERTEX
  8
SST
 10
1.7145
 20
0.6750
 30
 0.0
 42
1.0
  0
VERTEX
  8
SST
 10
1.7175
 20
0.6750
 30
 0.0
 42
1.0
  0
SEQEND
  8
SST
  0
POLYLINE
  8
SST
 66
      1
 70
1
 40
0.0060
 41
0.0060
  0
VERTEX
  8
SST
 10
1.2650
 20
0.5740
 30
 0.0
  0
VERTEX
  8
SST
 10
1.2300
 20
0.5740
 30
 0.0
  0
VERTEX
  8
SST
 10
1.2300
 20
0.5640
 30
 0.0
  0
VERTEX
  8
SST
 10
1.2650
 20
0.5640
 30
 0.0
  0
VERTEX
  8
SST
 10
1.2650
 20
0.5740
 30
 0.0
  0
SEQEND
  8
SST
  0
POLYLINE
  8
SST
 66
      1
 70
1
 40
0.0030
 41
0.0030
  0
VERTEX
  8
SST
 10
1.2635
 20
0.5740
 30
 0.0
 42
1.0
  0
VERTEX
  8
SST
 10
1.2665
 20
0.5740
 30
 0.0
 42
1.0
  0
SEQEND
  8
SST
  0
POLYLINE
  8
SST
 66
      1
 70
1
 40
0.0030
 41
0.0030
  0
VERTEX
  8
SST
 10
1.2285
 20
0.5740
 30
 0.0
 42
1.0
  0
VERTEX
  8
SST
 10
1.2315
 20
0.5740
 30
 0.0
 42
1.0
  0
SEQEND
  8
SST
  0
POLYLINE
  8
SST
 66
      1
 70
1
 40
0.0030
 41
0.0030
  0
VERTEX
  8
SST
 10
1.2285
 20
0.5640
 30
 0.0
 42
1.0
  0
VERTEX
  8
SST
 10
1.2315
 20
0.5640
 30
 0.0
 42
1.0
  0
SEQEND
  8
SST
  0
POLYLINE
  8
SST
 66
      1
 70
1
 40
0.0030
 41
0.0030
  0
VERTEX
  8
SST
 10
1.2635
 20
0.5640
 30
 0.0
 42
1.0
  0
VERTEX
  8
SST
 10
1.2665
 20
0.5640
 30
 0.0
 42
1.0
  0
SEQEND
  8
SST
  0
POLYLINE
  8
SST
 66
      1
 70
1
 40
0.0030
 41
0.0030
  0
VERTEX
  8
SST
 10
1.2635
 20
0.5740
 30
 0.0
 42
1.0
  0
VERTEX
  8
SST
 10
1.2665
 20
0.5740
 30
 0.0
 42
1.0
  0
SEQEND
  8
SST
  0
POLYLINE
  8
SST
 66
      1
 70
1
 40
0.0100
 41
0.0100
  0
VERTEX
  8
SST
 10
0.3220
 20
0.9870
 30
 0.0
  0
VERTEX
  8
SST
 10
0.6370
 20
0.9870
 30
 0.0
  0
VERTEX
  8
SST
 10
0.6370
 20
0.6020
 30
 0.0
  0
VERTEX
  8
SST
 10
0.3220
 20
0.6020
 30
 0.0
  0
VERTEX
  8
SST
 10
0.3220
 20
0.9870
 30
 0.0
  0
SEQEND
  8
SST
  0
POLYLINE
  8
SST
 66
      1
 70
1
 40
0.0050
 41
0.0050
  0
VERTEX
  8
SST
 10
0.3195
 20
0.9870
 30
 0.0
 42
1.0
  0
VERTEX
  8
SST
 10
0.3245
 20
0.9870
 30
 0.0
 42
1.0
  0
SEQEND
  8
SST
  0
POLYLINE
  8
SST
 66
      1
 70
1
 40
0.0050
 41
0.0050
  0
VERTEX
  8
SST
 10
0.6345
 20
0.9870
 30
 0.0
 42
1.0
  0
VERTEX
  8
SST
 10
0.6395
 20
0.9870
 30
 0.0
 42
1.0
  0
SEQEND
  8
SST
  0
POLYLINE
  8
SST
 66
      1
 70
1
 40
0.0050
 41
0.0050
  0
VERTEX
  8
SST
 10
0.6345
 20
0.6020
 30
 0.0
 42
1.0
  0
VERTEX
  8
SST
 10
0.6395
 20
0.6020
 30
 0.0
 42
1.0
  0
SEQEND
  8
SST
  0
POLYLINE
  8
SST
 66
      1
 70
1
 40
0.0050
 41
0.0050
  0
VERTEX
  8
SST
 10
0.3195
 20
0.6020
 30
 0.0
 42
1.0
  0
VERTEX
  8
SST
 10
0.3245
 20
0.6020
 30
 0.0
 42
1.0
  0
SEQEND
  8
SST
  0
POLYLINE
  8
SST
 66
      1
 70
1
 40
0.0050
 41
0.0050
  0
VERTEX
  8
SST
 10
0.3195
 20
0.9870
 30
 0.0
 42
1.0
  0
VERTEX
  8
SST
 10
0.3245
 20
0.9870
 30
 0.0
 42
1.0
  0
SEQEND
  8
SST
  0
POLYLINE
  8
SST
 66
      1
 70
1
 40
0.0060
 41
0.0060
  0
VERTEX
  8
SST
 10
2.3570
 20
1.1800
 30
 0.0
  0
VERTEX
  8
SST
 10
2.2970
 20
1.1800
 30
 0.0
  0
VERTEX
  8
SST
 10
2.2970
 20
1.2300
 30
 0.0
  0
VERTEX
  8
SST
 10
2.3570
 20
1.2300
 30
 0.0
  0
VERTEX
  8
SST
 10
2.3570
 20
1.1800
 30
 0.0
  0
SEQEND
  8
SST
  0
POLYLINE
  8
SST
 66
      1
 70
1
 40
0.0030
 41
0.0030
  0
VERTEX
  8
SST
 10
2.3555
 20
1.1800
 30
 0.0
 42
1.0
  0
VERTEX
  8
SST
 10
2.3585
 20
1.1800
 30
 0.0
 42
1.0
  0
SEQEND
  8
SST
  0
POLYLINE
  8
SST
 66
      1
 70
1
 40
0.0030
 41
0.0030
  0
VERTEX
  8
SST
 10
2.2955
 20
1.1800
 30
 0.0
 42
1.0
  0
VERTEX
  8
SST
 10
2.2985
 20
1.1800
 30
 0.0
 42
1.0
  0
SEQEND
  8
SST
  0
POLYLINE
  8
SST
 66
      1
 70
1
 40
0.0030
 41
0.0030
  0
VERTEX
  8
SST
 10
2.2955
 20
1.2300
 30
 0.0
 42
1.0
  0
VERTEX
  8
SST
 10
2.2985
 20
1.2300
 30
 0.0
 42
1.0
  0
SEQEND
  8
SST
  0
POLYLINE
  8
SST
 66
      1
 70
1
 40
0.0030
 41
0.0030
  0
VERTEX
  8
SST
 10
2.3555
 20
1.2300
 30
 0.0
 42
1.0
  0
VERTEX
  8
SST
 10
2.3585
 20
1.2300
 30
 0.0
 42
1.0
  0
SEQEND
  8
SST
  0
POLYLINE
  8
SST
 66
      1
 70
1
 40
0.0030
 41
0.0030
  0
VERTEX
  8
SST
 10
2.3555
 20
1.1800
 30
 0.0
 42
1.0
  0
VERTEX
  8
SST
 10
2.3585
 20
1.1800
 30
 0.0
 42
1.0
  0
SEQEND
  8
SST
  0
POLYLINE
  8
SST
 66
      1
 70
1
 40
0.0060
 41
0.0060
  0
VERTEX
  8
SST
 10
2.1530
 20
0.7160
 30
 0.0
  0
VERTEX
  8
SST
 10
2.1530
 20
0.8110
 30
 0.0
  0
VERTEX
  8
SST
 10
2.2030
 20
0.8110
 30
 0.0
  0
VERTEX
  8
SST
 10
2.2030
 20
0.7160
 30
 0.0
  0
VERTEX
  8
SST
 10
2.1530
 20
0.7160
 30
 0.0
  0
SEQEND
  8
SST
  0
POLYLINE
  8
SST
 66
      1
 70
1
 40
0.0030
 41
0.0030
  0
VERTEX
  8
SST
 10
2.1515
 20
0.7160
 30
 0.0
 42
1.0
  0
VERTEX
  8
SST
 10
2.1545
 20
0.7160
 30
 0.0
 42
1.0
  0
SEQEND
  8
SST
  0
POLYLINE
  8
SST
 66
      1
 70
1
 40
0.0030
 41
0.0030
  0
VERTEX
  8
SST
 10
2.1515
 20
0.8110
 30
 0.0
 42
1.0
  0
VERTEX
  8
SST
 10
2.1545
 20
0.8110
 30
 0.0
 42
1.0
  0
SEQEND
  8
SST
  0
POLYLINE
  8
SST
 66
      1
 70
1
 40
0.0030
 41
0.0030
  0
VERTEX
  8
SST
 10
2.2015
 20
0.8110
 30
 0.0
 42
1.0
  0
VERTEX
  8
SST
 10
2.2045
 20
0.8110
 30
 0.0
 42
1.0
  0
SEQEND
  8
SST
  0
POLYLINE
  8
SST
 66
      1
 70
1
 40
0.0030
 41
0.0030
  0
VERTEX
  8
SST
 10
2.2015
 20
0.7160
 30
 0.0
 42
1.0
  0
VERTEX
  8
SST
 10
2.2045
 20
0.7160
 30
 0.0
 42
1.0
  0
SEQEND
  8
SST
  0
POLYLINE
  8
SST
 66
      1
 70
1
 40
0.0030
 41
0.0030
  0
VERTEX
  8
SST
 10
2.1515
 20
0.7160
 30
 0.0
 42
1.0
  0
VERTEX
  8
SST
 10
2.1545
 20
0.7160
 30
 0.0
 42
1.0
  0
SEQEND
  8
SST
  0
POLYLINE
  8
SST
 66
      1
 70
1
 40
0.0060
 41
0.0060
  0
VERTEX
  8
SST
 10
2.1600
 20
0.7580
 30
 0.0
  0
VERTEX
  8
SST
 10
2.1950
 20
0.7580
 30
 0.0
  0
VERTEX
  8
SST
 10
2.1950
 20
0.7680
 30
 0.0
  0
VERTEX
  8
SST
 10
2.1600
 20
0.7680
 30
 0.0
  0
VERTEX
  8
SST
 10
2.1600
 20
0.7580
 30
 0.0
  0
SEQEND
  8
SST
  0
POLYLINE
  8
SST
 66
      1
 70
1
 40
0.0030
 41
0.0030
  0
VERTEX
  8
SST
 10
2.1585
 20
0.7580
 30
 0.0
 42
1.0
  0
VERTEX
  8
SST
 10
2.1615
 20
0.7580
 30
 0.0
 42
1.0
  0
SEQEND
  8
SST
  0
POLYLINE
  8
SST
 66
      1
 70
1
 40
0.0030
 41
0.0030
  0
VERTEX
  8
SST
 10
2.1935
 20
0.7580
 30
 0.0
 42
1.0
  0
VERTEX
  8
SST
 10
2.1965
 20
0.7580
 30
 0.0
 42
1.0
  0
SEQEND
  8
SST
  0
POLYLINE
  8
SST
 66
      1
 70
1
 40
0.0030
 41
0.0030
  0
VERTEX
  8
SST
 10
2.1935
 20
0.7680
 30
 0.0
 42
1.0
  0
VERTEX
  8
SST
 10
2.1965
 20
0.7680
 30
 0.0
 42
1.0
  0
SEQEND
  8
SST
  0
POLYLINE
  8
SST
 66
      1
 70
1
 40
0.0030
 41
0.0030
  0
VERTEX
  8
SST
 10
2.1585
 20
0.7680
 30
 0.0
 42
1.0
  0
VERTEX
  8
SST
 10
2.1615
 20
0.7680
 30
 0.0
 42
1.0
  0
SEQEND
  8
SST
  0
POLYLINE
  8
SST
 66
      1
 70
1
 40
0.0030
 41
0.0030
  0
VERTEX
  8
SST
 10
2.1585
 20
0.7580
 30
 0.0
 42
1.0
  0
VERTEX
  8
SST
 10
2.1615
 20
0.7580
 30
 0.0
 42
1.0
  0
SEQEND
  8
SST
  0
POLYLINE
  8
SST
 66
      1
 70
1
 40
0.0080
 41
0.0080
  0
VERTEX
  8
SST
 10
1.9940
 20
0.6950
 30
 0.0
  0
VERTEX
  8
SST
 10
1.9940
 20
0.7340
 30
 0.0
  0
VERTEX
  8
SST
 10
1.9550
 20
0.7340
 30
 0.0
  0
VERTEX
  8
SST
 10
1.9550
 20
0.6950
 30
 0.0
  0
VERTEX
  8
SST
 10
1.9940
 20
0.6950
 30
 0.0
  0
SEQEND
  8
SST
  0
POLYLINE
  8
SST
 66
      1
 70
1
 40
0.0040
 41
0.0040
  0
VERTEX
  8
SST
 10
1.9920
 20
0.6950
 30
 0.0
 42
1.0
  0
VERTEX
  8
SST
 10
1.9960
 20
0.6950
 30
 0.0
 42
1.0
  0
SEQEND
  8
SST
  0
POLYLINE
  8
SST
 66
      1
 70
1
 40
0.0040
 41
0.0040
  0
VERTEX
  8
SST
 10
1.9920
 20
0.7340
 30
 0.0
 42
1.0
  0
VERTEX
  8
SST
 10
1.9960
 20
0.7340
 30
 0.0
 42
1.0
  0
SEQEND
  8
SST
  0
POLYLINE
  8
SST
 66
      1
 70
1
 40
0.0040
 41
0.0040
  0
VERTEX
  8
SST
 10
1.9530
 20
0.7340
 30
 0.0
 42
1.0
  0
VERTEX
  8
SST
 10
1.9570
 20
0.7340
 30
 0.0
 42
1.0
  0
SEQEND
  8
SST
  0
POLYLINE
  8
SST
 66
      1
 70
1
 40
0.0040
 41
0.0040
  0
VERTEX
  8
SST
 10
1.9530
 20
0.6950
 30
 0.0
 42
1.0
  0
VERTEX
  8
SST
 10
1.9570
 20
0.6950
 30
 0.0
 42
1.0
  0
SEQEND
  8
SST
  0
POLYLINE
  8
SST
 66
      1
 70
1
 40
0.0040
 41
0.0040
  0
VERTEX
  8
SST
 10
1.9920
 20
0.6950
 30
 0.0
 42
1.0
  0
VERTEX
  8
SST
 10
1.9960
 20
0.6950
 30
 0.0
 42
1.0
  0
SEQEND
  8
SST
  0
POLYLINE
  8
SST
 66
      1
 70
1
 40
0.0080
 41
0.0080
  0
VERTEX
  8
SST
 10
1.8290
 20
0.6850
 30
 0.0
  0
VERTEX
  8
SST
 10
1.8290
 20
0.8100
 30
 0.0
  0
VERTEX
  8
SST
 10
2.0030
 20
0.8100
 30
 0.0
  0
VERTEX
  8
SST
 10
2.0030
 20
0.6850
 30
 0.0
  0
VERTEX
  8
SST
 10
1.8290
 20
0.6850
 30
 0.0
  0
SEQEND
  8
SST
  0
POLYLINE
  8
SST
 66
      1
 70
1
 40
0.0040
 41
0.0040
  0
VERTEX
  8
SST
 10
1.8270
 20
0.6850
 30
 0.0
 42
1.0
  0
VERTEX
  8
SST
 10
1.8310
 20
0.6850
 30
 0.0
 42
1.0
  0
SEQEND
  8
SST
  0
POLYLINE
  8
SST
 66
      1
 70
1
 40
0.0040
 41
0.0040
  0
VERTEX
  8
SST
 10
1.8270
 20
0.8100
 30
 0.0
 42
1.0
  0
VERTEX
  8
SST
 10
1.8310
 20
0.8100
 30
 0.0
 42
1.0
  0
SEQEND
  8
SST
  0
POLYLINE
  8
SST
 66
      1
 70
1
 40
0.0040
 41
0.0040
  0
VERTEX
  8
SST
 10
2.0010
 20
0.8100
 30
 0.0
 42
1.0
  0
VERTEX
  8
SST
 10
2.0050
 20
0.8100
 30
 0.0
 42
1.0
  0
SEQEND
  8
SST
  0
POLYLINE
  8
SST
 66
      1
 70
1
 40
0.0040
 41
0.0040
  0
VERTEX
  8
SST
 10
2.0010
 20
0.6850
 30
 0.0
 42
1.0
  0
VERTEX
  8
SST
 10
2.0050
 20
0.6850
 30
 0.0
 42
1.0
  0
SEQEND
  8
SST
  0
POLYLINE
  8
SST
 66
      1
 70
1
 40
0.0040
 41
0.0040
  0
VERTEX
  8
SST
 10
1.8270
 20
0.6850
 30
 0.0
 42
1.0
  0
VERTEX
  8
SST
 10
1.8310
 20
0.6850
 30
 0.0
 42
1.0
  0
SEQEND
  8
SST
  0
POLYLINE
  8
SST
 66
      1
 70
1
 40
0.0060
 41
0.0060
  0
VERTEX
  8
SST
 10
0.7950
 20
0.8170
 30
 0.0
  0
VERTEX
  8
SST
 10
0.7950
 20
0.7570
 30
 0.0
  0
VERTEX
  8
SST
 10
0.7450
 20
0.7570
 30
 0.0
  0
VERTEX
  8
SST
 10
0.7450
 20
0.8170
 30
 0.0
  0
VERTEX
  8
SST
 10
0.7950
 20
0.8170
 30
 0.0
  0
SEQEND
  8
SST
  0
POLYLINE
  8
SST
 66
      1
 70
1
 40
0.0030
 41
0.0030
  0
VERTEX
  8
SST
 10
0.7935
 20
0.8170
 30
 0.0
 42
1.0
  0
VERTEX
  8
SST
 10
0.7965
 20
0.8170
 30
 0.0
 42
1.0
  0
SEQEND
  8
SST
  0
POLYLINE
  8
SST
 66
      1
 70
1
 40
0.0030
 41
0.0030
  0
VERTEX
  8
SST
 10
0.7935
 20
0.7570
 30
 0.0
 42
1.0
  0
VERTEX
  8
SST
 10
0.7965
 20
0.7570
 30
 0.0
 42
1.0
  0
SEQEND
  8
SST
  0
POLYLINE
  8
SST
 66
      1
 70
1
 40
0.0030
 41
0.0030
  0
VERTEX
  8
SST
 10
0.7435
 20
0.7570
 30
 0.0
 42
1.0
  0
VERTEX
  8
SST
 10
0.7465
 20
0.7570
 30
 0.0
 42
1.0
  0
SEQEND
  8
SST
  0
POLYLINE
  8
SST
 66
      1
 70
1
 40
0.0030
 41
0.0030
  0
VERTEX
  8
SST
 10
0.7435
 20
0.8170
 30
 0.0
 42
1.0
  0
VERTEX
  8
SST
 10
0.7465
 20
0.8170
 30
 0.0
 42
1.0
  0
SEQEND
  8
SST
  0
POLYLINE
  8
SST
 66
      1
 70
1
 40
0.0030
 41
0.0030
  0
VERTEX
  8
SST
 10
0.7935
 20
0.8170
 30
 0.0
 42
1.0
  0
VERTEX
  8
SST
 10
0.7965
 20
0.8170
 30
 0.0
 42
1.0
  0
SEQEND
  8
SST
  0
POLYLINE
  8
SST
 66
      1
 70
0
 40
0.0060
 41
0.0060
  0
VERTEX
  8
SST
 10
1.5500
 20
0.9960
 30
 0.0
  0
VERTEX
  8
SST
 10
1.5240
 20
0.9960
 30
 0.0
  0
VERTEX
  8
SST
 10
1.5240
 20
1.0260
 30
 0.0
  0
SEQEND
  8
SST
  0
POLYLINE
  8
SST
 66
      1
 70
1
 40
0.0030
 41
0.0030
  0
VERTEX
  8
SST
 10
1.5485
 20
0.9960
 30
 0.0
 42
1.0
  0
VERTEX
  8
SST
 10
1.5515
 20
0.9960
 30
 0.0
 42
1.0
  0
SEQEND
  8
SST
  0
POLYLINE
  8
SST
 66
      1
 70
1
 40
0.0030
 41
0.0030
  0
VERTEX
  8
SST
 10
1.5225
 20
0.9960
 30
 0.0
 42
1.0
  0
VERTEX
  8
SST
 10
1.5255
 20
0.9960
 30
 0.0
 42
1.0
  0
SEQEND
  8
SST
  0
POLYLINE
  8
SST
 66
      1
 70
1
 40
0.0030
 41
0.0030
  0
VERTEX
  8
SST
 10
1.5225
 20
1.0260
 30
 0.0
 42
1.0
  0
VERTEX
  8
SST
 10
1.5255
 20
1.0260
 30
 0.0
 42
1.0
  0
SEQEND
  8
SST
  0
POLYLINE
  8
SST
 66
      1
 70
1
 40
0.0100
 41
0.0100
  0
VERTEX
  8
SST
 10
0.3210
 20
1.4300
 30
 0.0
  0
VERTEX
  8
SST
 10
0.3210
 20
1.0400
 30
 0.0
  0
VERTEX
  8
SST
 10
0.6360
 20
1.0400
 30
 0.0
  0
VERTEX
  8
SST
 10
0.6360
 20
1.4300
 30
 0.0
  0
VERTEX
  8
SST
 10
0.3210
 20
1.4300
 30
 0.0
  0
SEQEND
  8
SST
  0
POLYLINE
  8
SST
 66
      1
 70
1
 40
0.0050
 41
0.0050
  0
VERTEX
  8
SST
 10
0.3185
 20
1.4300
 30
 0.0
 42
1.0
  0
VERTEX
  8
SST
 10
0.3235
 20
1.4300
 30
 0.0
 42
1.0
  0
SEQEND
  8
SST
  0
POLYLINE
  8
SST
 66
      1
 70
1
 40
0.0050
 41
0.0050
  0
VERTEX
  8
SST
 10
0.3185
 20
1.0400
 30
 0.0
 42
1.0
  0
VERTEX
  8
SST
 10
0.3235
 20
1.0400
 30
 0.0
 42
1.0
  0
SEQEND
  8
SST
  0
POLYLINE
  8
SST
 66
      1
 70
1
 40
0.0050
 41
0.0050
  0
VERTEX
  8
SST
 10
0.6335
 20
1.0400
 30
 0.0
 42
1.0
  0
VERTEX
  8
SST
 10
0.6385
 20
1.0400
 30
 0.0
 42
1.0
  0
SEQEND
  8
SST
  0
POLYLINE
  8
SST
 66
      1
 70
1
 40
0.0050
 41
0.0050
  0
VERTEX
  8
SST
 10
0.6335
 20
1.4300
 30
 0.0
 42
1.0
  0
VERTEX
  8
SST
 10
0.6385
 20
1.4300
 30
 0.0
 42
1.0
  0
SEQEND
  8
SST
  0
POLYLINE
  8
SST
 66
      1
 70
1
 40
0.0050
 41
0.0050
  0
VERTEX
  8
SST
 10
0.3185
 20
1.4300
 30
 0.0
 42
1.0
  0
VERTEX
  8
SST
 10
0.3235
 20
1.4300
 30
 0.0
 42
1.0
  0
SEQEND
  8
SST
  0
POLYLINE
  8
SST
 66
      1
 70
1
 40
0.0100
 41
0.0100
  0
VERTEX
  8
SST
 10
2.2380
 20
1.0060
 30
 0.0
  0
VERTEX
  8
SST
 10
2.2380
 20
1.0580
 30
 0.0
  0
VERTEX
  8
SST
 10
2.5800
 20
1.0580
 30
 0.0
  0
VERTEX
  8
SST
 10
2.5800
 20
0.6120
 30
 0.0
  0
VERTEX
  8
SST
 10
2.2380
 20
0.6120
 30
 0.0
  0
VERTEX
  8
SST
 10
2.2380
 20
1.0060
 30
 0.0
  0
SEQEND
  8
SST
  0
POLYLINE
  8
SST
 66
      1
 70
1
 40
0.0050
 41
0.0050
  0
VERTEX
  8
SST
 10
2.2355
 20
1.0060
 30
 0.0
 42
1.0
  0
VERTEX
  8
SST
 10
2.2405
 20
1.0060
 30
 0.0
 42
1.0
  0
SEQEND
  8
SST
  0
POLYLINE
  8
SST
 66
      1
 70
1
 40
0.0050
 41
0.0050
  0
VERTEX
  8
SST
 10
2.2355
 20
1.0580
 30
 0.0
 42
1.0
  0
VERTEX
  8
SST
 10
2.2405
 20
1.0580
 30
 0.0
 42
1.0
  0
SEQEND
  8
SST
  0
POLYLINE
  8
SST
 66
      1
 70
1
 40
0.0050
 41
0.0050
  0
VERTEX
  8
SST
 10
2.5775
 20
1.0580
 30
 0.0
 42
1.0
  0
VERTEX
  8
SST
 10
2.5825
 20
1.0580
 30
 0.0
 42
1.0
  0
SEQEND
  8
SST
  0
POLYLINE
  8
SST
 66
      1
 70
1
 40
0.0050
 41
0.0050
  0
VERTEX
  8
SST
 10
2.5775
 20
0.6120
 30
 0.0
 42
1.0
  0
VERTEX
  8
SST
 10
2.5825
 20
0.6120
 30
 0.0
 42
1.0
  0
SEQEND
  8
SST
  0
POLYLINE
  8
SST
 66
      1
 70
1
 40
0.0050
 41
0.0050
  0
VERTEX
  8
SST
 10
2.2355
 20
0.6120
 30
 0.0
 42
1.0
  0
VERTEX
  8
SST
 10
2.2405
 20
0.6120
 30
 0.0
 42
1.0
  0
SEQEND
  8
SST
  0
POLYLINE
  8
SST
 66
      1
 70
1
 40
0.0050
 41
0.0050
  0
VERTEX
  8
SST
 10
2.2355
 20
1.0060
 30
 0.0
 42
1.0
  0
VERTEX
  8
SST
 10
2.2405
 20
1.0060
 30
 0.0
 42
1.0
  0
SEQEND
  8
SST
  0
POLYLINE
  8
SST
 66
      1
 70
1
 40
0.0060
 41
0.0060
  0
VERTEX
  8
SST
 10
1.1280
 20
1.0780
 30
 0.0
  0
VERTEX
  8
SST
 10
1.1280
 20
1.0280
 30
 0.0
  0
VERTEX
  8
SST
 10
1.2230
 20
1.0280
 30
 0.0
  0
VERTEX
  8
SST
 10
1.2230
 20
1.0780
 30
 0.0
  0
VERTEX
  8
SST
 10
1.1280
 20
1.0780
 30
 0.0
  0
SEQEND
  8
SST
  0
POLYLINE
  8
SST
 66
      1
 70
1
 40
0.0030
 41
0.0030
  0
VERTEX
  8
SST
 10
1.1265
 20
1.0780
 30
 0.0
 42
1.0
  0
VERTEX
  8
SST
 10
1.1295
 20
1.0780
 30
 0.0
 42
1.0
  0
SEQEND
  8
SST
  0
POLYLINE
  8
SST
 66
      1
 70
1
 40
0.0030
 41
0.0030
  0
VERTEX
  8
SST
 10
1.1265
 20
1.0280
 30
 0.0
 42
1.0
  0
VERTEX
  8
SST
 10
1.1295
 20
1.0280
 30
 0.0
 42
1.0
  0
SEQEND
  8
SST
  0
POLYLINE
  8
SST
 66
      1
 70
1
 40
0.0030
 41
0.0030
  0
VERTEX
  8
SST
 10
1.2215
 20
1.0280
 30
 0.0
 42
1.0
  0
VERTEX
  8
SST
 10
1.2245
 20
1.0280
 30
 0.0
 42
1.0
  0
SEQEND
  8
SST
  0
POLYLINE
  8
SST
 66
      1
 70
1
 40
0.0030
 41
0.0030
  0
VERTEX
  8
SST
 10
1.2215
 20
1.0780
 30
 0.0
 42
1.0
  0
VERTEX
  8
SST
 10
1.2245
 20
1.0780
 30
 0.0
 42
1.0
  0
SEQEND
  8
SST
  0
POLYLINE
  8
SST
 66
      1
 70
1
 40
0.0030
 41
0.0030
  0
VERTEX
  8
SST
 10
1.1265
 20
1.0780
 30
 0.0
 42
1.0
  0
VERTEX
  8
SST
 10
1.1295
 20
1.0780
 30
 0.0
 42
1.0
  0
SEQEND
  8
SST
  0
POLYLINE
  8
SST
 66
      1
 70
1
 40
0.0060
 41
0.0060
  0
VERTEX
  8
SST
 10
1.1700
 20
1.0700
 30
 0.0
  0
VERTEX
  8
SST
 10
1.1700
 20
1.0350
 30
 0.0
  0
VERTEX
  8
SST
 10
1.1800
 20
1.0350
 30
 0.0
  0
VERTEX
  8
SST
 10
1.1800
 20
1.0700
 30
 0.0
  0
VERTEX
  8
SST
 10
1.1700
 20
1.0700
 30
 0.0
  0
SEQEND
  8
SST
  0
POLYLINE
  8
SST
 66
      1
 70
1
 40
0.0030
 41
0.0030
  0
VERTEX
  8
SST
 10
1.1685
 20
1.0700
 30
 0.0
 42
1.0
  0
VERTEX
  8
SST
 10
1.1715
 20
1.0700
 30
 0.0
 42
1.0
  0
SEQEND
  8
SST
  0
POLYLINE
  8
SST
 66
      1
 70
1
 40
0.0030
 41
0.0030
  0
VERTEX
  8
SST
 10
1.1685
 20
1.0350
 30
 0.0
 42
1.0
  0
VERTEX
  8
SST
 10
1.1715
 20
1.0350
 30
 0.0
 42
1.0
  0
SEQEND
  8
SST
  0
POLYLINE
  8
SST
 66
      1
 70
1
 40
0.0030
 41
0.0030
  0
VERTEX
  8
SST
 10
1.1785
 20
1.0350
 30
 0.0
 42
1.0
  0
VERTEX
  8
SST
 10
1.1815
 20
1.0350
 30
 0.0
 42
1.0
  0
SEQEND
  8
SST
  0
POLYLINE
  8
SST
 66
      1
 70
1
 40
0.0030
 41
0.0030
  0
VERTEX
  8
SST
 10
1.1785
 20
1.0700
 30
 0.0
 42
1.0
  0
VERTEX
  8
SST
 10
1.1815
 20
1.0700
 30
 0.0
 42
1.0
  0
SEQEND
  8
SST
  0
POLYLINE
  8
SST
 66
      1
 70
1
 40
0.0030
 41
0.0030
  0
VERTEX
  8
SST
 10
1.1685
 20
1.0700
 30
 0.0
 42
1.0
  0
VERTEX
  8
SST
 10
1.1715
 20
1.0700
 30
 0.0
 42
1.0
  0
SEQEND
  8
SST
  0
POLYLINE
  8
SST
 66
      1
 70
1
 40
0.0060
 41
0.0060
  0
VERTEX
  8
SST
 10
1.2580
 20
1.0780
 30
 0.0
  0
VERTEX
  8
SST
 10
1.2580
 20
1.0280
 30
 0.0
  0
VERTEX
  8
SST
 10
1.3530
 20
1.0280
 30
 0.0
  0
VERTEX
  8
SST
 10
1.3530
 20
1.0780
 30
 0.0
  0
VERTEX
  8
SST
 10
1.2580
 20
1.0780
 30
 0.0
  0
SEQEND
  8
SST
  0
POLYLINE
  8
SST
 66
      1
 70
1
 40
0.0030
 41
0.0030
  0
VERTEX
  8
SST
 10
1.2565
 20
1.0780
 30
 0.0
 42
1.0
  0
VERTEX
  8
SST
 10
1.2595
 20
1.0780
 30
 0.0
 42
1.0
  0
SEQEND
  8
SST
  0
POLYLINE
  8
SST
 66
      1
 70
1
 40
0.0030
 41
0.0030
  0
VERTEX
  8
SST
 10
1.2565
 20
1.0280
 30
 0.0
 42
1.0
  0
VERTEX
  8
SST
 10
1.2595
 20
1.0280
 30
 0.0
 42
1.0
  0
SEQEND
  8
SST
  0
POLYLINE
  8
SST
 66
      1
 70
1
 40
0.0030
 41
0.0030
  0
VERTEX
  8
SST
 10
1.3515
 20
1.0280
 30
 0.0
 42
1.0
  0
VERTEX
  8
SST
 10
1.3545
 20
1.0280
 30
 0.0
 42
1.0
  0
SEQEND
  8
SST
  0
POLYLINE
  8
SST
 66
      1
 70
1
 40
0.0030
 41
0.0030
  0
VERTEX
  8
SST
 10
1.3515
 20
1.0780
 30
 0.0
 42
1.0
  0
VERTEX
  8
SST
 10
1.3545
 20
1.0780
 30
 0.0
 42
1.0
  0
SEQEND
  8
SST
  0
POLYLINE
  8
SST
 66
      1
 70
1
 40
0.0030
 41
0.0030
  0
VERTEX
  8
SST
 10
1.2565
 20
1.0780
 30
 0.0
 42
1.0
  0
VERTEX
  8
SST
 10
1.2595
 20
1.0780
 30
 0.0
 42
1.0
  0
SEQEND
  8
SST
  0
POLYLINE
  8
SST
 66
      1
 70
1
 40
0.0060
 41
0.0060
  0
VERTEX
  8
SST
 10
1.3000
 20
1.0700
 30
 0.0
  0
VERTEX
  8
SST
 10
1.3000
 20
1.0350
 30
 0.0
  0
VERTEX
  8
SST
 10
1.3100
 20
1.0350
 30
 0.0
  0
VERTEX
  8
SST
 10
1.3100
 20
1.0700
 30
 0.0
  0
VERTEX
  8
SST
 10
1.3000
 20
1.0700
 30
 0.0
  0
SEQEND
  8
SST
  0
POLYLINE
  8
SST
 66
      1
 70
1
 40
0.0030
 41
0.0030
  0
VERTEX
  8
SST
 10
1.2985
 20
1.0700
 30
 0.0
 42
1.0
  0
VERTEX
  8
SST
 10
1.3015
 20
1.0700
 30
 0.0
 42
1.0
  0
SEQEND
  8
SST
  0
POLYLINE
  8
SST
 66
      1
 70
1
 40
0.0030
 41
0.0030
  0
VERTEX
  8
SST
 10
1.2985
 20
1.0350
 30
 0.0
 42
1.0
  0
VERTEX
  8
SST
 10
1.3015
 20
1.0350
 30
 0.0
 42
1.0
  0
SEQEND
  8
SST
  0
POLYLINE
  8
SST
 66
      1
 70
1
 40
0.0030
 41
0.0030
  0
VERTEX
  8
SST
 10
1.3085
 20
1.0350
 30
 0.0
 42
1.0
  0
VERTEX
  8
SST
 10
1.3115
 20
1.0350
 30
 0.0
 42
1.0
  0
SEQEND
  8
SST
  0
POLYLINE
  8
SST
 66
      1
 70
1
 40
0.0030
 41
0.0030
  0
VERTEX
  8
SST
 10
1.3085
 20
1.0700
 30
 0.0
 42
1.0
  0
VERTEX
  8
SST
 10
1.3115
 20
1.0700
 30
 0.0
 42
1.0
  0
SEQEND
  8
SST
  0
POLYLINE
  8
SST
 66
      1
 70
1
 40
0.0030
 41
0.0030
  0
VERTEX
  8
SST
 10
1.2985
 20
1.0700
 30
 0.0
 42
1.0
  0
VERTEX
  8
SST
 10
1.3015
 20
1.0700
 30
 0.0
 42
1.0
  0
SEQEND
  8
SST
  0
POLYLINE
  8
SST
 66
      1
 70
1
 40
0.0060
 41
0.0060
  0
VERTEX
  8
SST
 10
1.6690
 20
1.0640
 30
 0.0
  0
VERTEX
  8
SST
 10
1.7040
 20
1.0640
 30
 0.0
  0
VERTEX
  8
SST
 10
1.7040
 20
1.0740
 30
 0.0
  0
VERTEX
  8
SST
 10
1.6690
 20
1.0740
 30
 0.0
  0
VERTEX
  8
SST
 10
1.6690
 20
1.0640
 30
 0.0
  0
SEQEND
  8
SST
  0
POLYLINE
  8
SST
 66
      1
 70
1
 40
0.0030
 41
0.0030
  0
VERTEX
  8
SST
 10
1.6675
 20
1.0640
 30
 0.0
 42
1.0
  0
VERTEX
  8
SST
 10
1.6705
 20
1.0640
 30
 0.0
 42
1.0
  0
SEQEND
  8
SST
  0
POLYLINE
  8
SST
 66
      1
 70
1
 40
0.0030
 41
0.0030
  0
VERTEX
  8
SST
 10
1.7025
 20
1.0640
 30
 0.0
 42
1.0
  0
VERTEX
  8
SST
 10
1.7055
 20
1.0640
 30
 0.0
 42
1.0
  0
SEQEND
  8
SST
  0
POLYLINE
  8
SST
 66
      1
 70
1
 40
0.0030
 41
0.0030
  0
VERTEX
  8
SST
 10
1.7025
 20
1.0740
 30
 0.0
 42
1.0
  0
VERTEX
  8
SST
 10
1.7055
 20
1.0740
 30
 0.0
 42
1.0
  0
SEQEND
  8
SST
  0
POLYLINE
  8
SST
 66
      1
 70
1
 40
0.0030
 41
0.0030
  0
VERTEX
  8
SST
 10
1.6675
 20
1.0740
 30
 0.0
 42
1.0
  0
VERTEX
  8
SST
 10
1.6705
 20
1.0740
 30
 0.0
 42
1.0
  0
SEQEND
  8
SST
  0
POLYLINE
  8
SST
 66
      1
 70
1
 40
0.0030
 41
0.0030
  0
VERTEX
  8
SST
 10
1.6675
 20
1.0640
 30
 0.0
 42
1.0
  0
VERTEX
  8
SST
 10
1.6705
 20
1.0640
 30
 0.0
 42
1.0
  0
SEQEND
  8
SST
  0
POLYLINE
  8
SST
 66
      1
 70
1
 40
0.0060
 41
0.0060
  0
VERTEX
  8
SST
 10
1.6620
 20
1.0220
 30
 0.0
  0
VERTEX
  8
SST
 10
1.7120
 20
1.0220
 30
 0.0
  0
VERTEX
  8
SST
 10
1.7120
 20
1.1170
 30
 0.0
  0
VERTEX
  8
SST
 10
1.6620
 20
1.1170
 30
 0.0
  0
VERTEX
  8
SST
 10
1.6620
 20
1.0220
 30
 0.0
  0
SEQEND
  8
SST
  0
POLYLINE
  8
SST
 66
      1
 70
1
 40
0.0030
 41
0.0030
  0
VERTEX
  8
SST
 10
1.6605
 20
1.0220
 30
 0.0
 42
1.0
  0
VERTEX
  8
SST
 10
1.6635
 20
1.0220
 30
 0.0
 42
1.0
  0
SEQEND
  8
SST
  0
POLYLINE
  8
SST
 66
      1
 70
1
 40
0.0030
 41
0.0030
  0
VERTEX
  8
SST
 10
1.7105
 20
1.0220
 30
 0.0
 42
1.0
  0
VERTEX
  8
SST
 10
1.7135
 20
1.0220
 30
 0.0
 42
1.0
  0
SEQEND
  8
SST
  0
POLYLINE
  8
SST
 66
      1
 70
1
 40
0.0030
 41
0.0030
  0
VERTEX
  8
SST
 10
1.7105
 20
1.1170
 30
 0.0
 42
1.0
  0
VERTEX
  8
SST
 10
1.7135
 20
1.1170
 30
 0.0
 42
1.0
  0
SEQEND
  8
SST
  0
POLYLINE
  8
SST
 66
      1
 70
1
 40
0.0030
 41
0.0030
  0
VERTEX
  8
SST
 10
1.6605
 20
1.1170
 30
 0.0
 42
1.0
  0
VERTEX
  8
SST
 10
1.6635
 20
1.1170
 30
 0.0
 42
1.0
  0
SEQEND
  8
SST
  0
POLYLINE
  8
SST
 66
      1
 70
1
 40
0.0030
 41
0.0030
  0
VERTEX
  8
SST
 10
1.6605
 20
1.0220
 30
 0.0
 42
1.0
  0
VERTEX
  8
SST
 10
1.6635
 20
1.0220
 30
 0.0
 42
1.0
  0
SEQEND
  8
SST
  0
POLYLINE
  8
SST
 66
      1
 70
1
 40
0.0060
 41
0.0060
  0
VERTEX
  8
SST
 10
1.3270
 20
0.5740
 30
 0.0
  0
VERTEX
  8
SST
 10
1.2920
 20
0.5740
 30
 0.0
  0
VERTEX
  8
SST
 10
1.2920
 20
0.5640
 30
 0.0
  0
VERTEX
  8
SST
 10
1.3270
 20
0.5640
 30
 0.0
  0
VERTEX
  8
SST
 10
1.3270
 20
0.5740
 30
 0.0
  0
SEQEND
  8
SST
  0
POLYLINE
  8
SST
 66
      1
 70
1
 40
0.0030
 41
0.0030
  0
VERTEX
  8
SST
 10
1.3255
 20
0.5740
 30
 0.0
 42
1.0
  0
VERTEX
  8
SST
 10
1.3285
 20
0.5740
 30
 0.0
 42
1.0
  0
SEQEND
  8
SST
  0
POLYLINE
  8
SST
 66
      1
 70
1
 40
0.0030
 41
0.0030
  0
VERTEX
  8
SST
 10
1.2905
 20
0.5740
 30
 0.0
 42
1.0
  0
VERTEX
  8
SST
 10
1.2935
 20
0.5740
 30
 0.0
 42
1.0
  0
SEQEND
  8
SST
  0
POLYLINE
  8
SST
 66
      1
 70
1
 40
0.0030
 41
0.0030
  0
VERTEX
  8
SST
 10
1.2905
 20
0.5640
 30
 0.0
 42
1.0
  0
VERTEX
  8
SST
 10
1.2935
 20
0.5640
 30
 0.0
 42
1.0
  0
SEQEND
  8
SST
  0
POLYLINE
  8
SST
 66
      1
 70
1
 40
0.0030
 41
0.0030
  0
VERTEX
  8
SST
 10
1.3255
 20
0.5640
 30
 0.0
 42
1.0
  0
VERTEX
  8
SST
 10
1.3285
 20
0.5640
 30
 0.0
 42
1.0
  0
SEQEND
  8
SST
  0
POLYLINE
  8
SST
 66
      1
 70
1
 40
0.0030
 41
0.0030
  0
VERTEX
  8
SST
 10
1.3255
 20
0.5740
 30
 0.0
 42
1.0
  0
VERTEX
  8
SST
 10
1.3285
 20
0.5740
 30
 0.0
 42
1.0
  0
SEQEND
  8
SST
  0
POLYLINE
  8
SST
 66
      1
 70
1
 40
0.0060
 41
0.0060
  0
VERTEX
  8
SST
 10
1.1290
 20
0.7640
 30
 0.0
  0
VERTEX
  8
SST
 10
1.2240
 20
0.7640
 30
 0.0
  0
VERTEX
  8
SST
 10
1.2240
 20
0.7140
 30
 0.0
  0
VERTEX
  8
SST
 10
1.1290
 20
0.7140
 30
 0.0
  0
VERTEX
  8
SST
 10
1.1290
 20
0.7640
 30
 0.0
  0
SEQEND
  8
SST
  0
POLYLINE
  8
SST
 66
      1
 70
1
 40
0.0030
 41
0.0030
  0
VERTEX
  8
SST
 10
1.1275
 20
0.7640
 30
 0.0
 42
1.0
  0
VERTEX
  8
SST
 10
1.1305
 20
0.7640
 30
 0.0
 42
1.0
  0
SEQEND
  8
SST
  0
POLYLINE
  8
SST
 66
      1
 70
1
 40
0.0030
 41
0.0030
  0
VERTEX
  8
SST
 10
1.2225
 20
0.7640
 30
 0.0
 42
1.0
  0
VERTEX
  8
SST
 10
1.2255
 20
0.7640
 30
 0.0
 42
1.0
  0
SEQEND
  8
SST
  0
POLYLINE
  8
SST
 66
      1
 70
1
 40
0.0030
 41
0.0030
  0
VERTEX
  8
SST
 10
1.2225
 20
0.7140
 30
 0.0
 42
1.0
  0
VERTEX
  8
SST
 10
1.2255
 20
0.7140
 30
 0.0
 42
1.0
  0
SEQEND
  8
SST
  0
POLYLINE
  8
SST
 66
      1
 70
1
 40
0.0030
 41
0.0030
  0
VERTEX
  8
SST
 10
1.1275
 20
0.7140
 30
 0.0
 42
1.0
  0
VERTEX
  8
SST
 10
1.1305
 20
0.7140
 30
 0.0
 42
1.0
  0
SEQEND
  8
SST
  0
POLYLINE
  8
SST
 66
      1
 70
1
 40
0.0030
 41
0.0030
  0
VERTEX
  8
SST
 10
1.1275
 20
0.7640
 30
 0.0
 42
1.0
  0
VERTEX
  8
SST
 10
1.1305
 20
0.7640
 30
 0.0
 42
1.0
  0
SEQEND
  8
SST
  0
POLYLINE
  8
SST
 66
      1
 70
1
 40
0.0060
 41
0.0060
  0
VERTEX
  8
SST
 10
1.1710
 20
0.7560
 30
 0.0
  0
VERTEX
  8
SST
 10
1.1710
 20
0.7210
 30
 0.0
  0
VERTEX
  8
SST
 10
1.1810
 20
0.7210
 30
 0.0
  0
VERTEX
  8
SST
 10
1.1810
 20
0.7560
 30
 0.0
  0
VERTEX
  8
SST
 10
1.1710
 20
0.7560
 30
 0.0
  0
SEQEND
  8
SST
  0
POLYLINE
  8
SST
 66
      1
 70
1
 40
0.0030
 41
0.0030
  0
VERTEX
  8
SST
 10
1.1695
 20
0.7560
 30
 0.0
 42
1.0
  0
VERTEX
  8
SST
 10
1.1725
 20
0.7560
 30
 0.0
 42
1.0
  0
SEQEND
  8
SST
  0
POLYLINE
  8
SST
 66
      1
 70
1
 40
0.0030
 41
0.0030
  0
VERTEX
  8
SST
 10
1.1695
 20
0.7210
 30
 0.0
 42
1.0
  0
VERTEX
  8
SST
 10
1.1725
 20
0.7210
 30
 0.0
 42
1.0
  0
SEQEND
  8
SST
  0
POLYLINE
  8
SST
 66
      1
 70
1
 40
0.0030
 41
0.0030
  0
VERTEX
  8
SST
 10
1.1795
 20
0.7210
 30
 0.0
 42
1.0
  0
VERTEX
  8
SST
 10
1.1825
 20
0.7210
 30
 0.0
 42
1.0
  0
SEQEND
  8
SST
  0
POLYLINE
  8
SST
 66
      1
 70
1
 40
0.0030
 41
0.0030
  0
VERTEX
  8
SST
 10
1.1795
 20
0.7560
 30
 0.0
 42
1.0
  0
VERTEX
  8
SST
 10
1.1825
 20
0.7560
 30
 0.0
 42
1.0
  0
SEQEND
  8
SST
  0
POLYLINE
  8
SST
 66
      1
 70
1
 40
0.0030
 41
0.0030
  0
VERTEX
  8
SST
 10
1.1695
 20
0.7560
 30
 0.0
 42
1.0
  0
VERTEX
  8
SST
 10
1.1725
 20
0.7560
 30
 0.0
 42
1.0
  0
SEQEND
  8
SST
  0
POLYLINE
  8
SST
 66
      1
 70
0
 40
0.0060
 41
0.0060
  0
VERTEX
  8
SST
 10
1.5540
 20
0.5380
 30
 0.0
  0
VERTEX
  8
SST
 10
1.5280
 20
0.5380
 30
 0.0
  0
VERTEX
  8
SST
 10
1.5280
 20
0.5680
 30
 0.0
  0
SEQEND
  8
SST
  0
POLYLINE
  8
SST
 66
      1
 70
1
 40
0.0030
 41
0.0030
  0
VERTEX
  8
SST
 10
1.5525
 20
0.5380
 30
 0.0
 42
1.0
  0
VERTEX
  8
SST
 10
1.5555
 20
0.5380
 30
 0.0
 42
1.0
  0
SEQEND
  8
SST
  0
POLYLINE
  8
SST
 66
      1
 70
1
 40
0.0030
 41
0.0030
  0
VERTEX
  8
SST
 10
1.5265
 20
0.5380
 30
 0.0
 42
1.0
  0
VERTEX
  8
SST
 10
1.5295
 20
0.5380
 30
 0.0
 42
1.0
  0
SEQEND
  8
SST
  0
POLYLINE
  8
SST
 66
      1
 70
1
 40
0.0030
 41
0.0030
  0
VERTEX
  8
SST
 10
1.5265
 20
0.5680
 30
 0.0
 42
1.0
  0
VERTEX
  8
SST
 10
1.5295
 20
0.5680
 30
 0.0
 42
1.0
  0
SEQEND
  8
SST
  0
POLYLINE
  8
SST
 66
      1
 70
1
 40
0.0080
 41
0.0080
  0
VERTEX
  8
SST
 10
1.2590
 20
0.7810
 30
 0.0
  0
VERTEX
  8
SST
 10
1.2340
 20
0.7810
 30
 0.0
  0
VERTEX
  8
SST
 10
1.2090
 20
0.8060
 30
 0.0
  0
VERTEX
  8
SST
 10
1.1840
 20
0.7810
 30
 0.0
  0
VERTEX
  8
SST
 10
1.1590
 20
0.7810
 30
 0.0
  0
VERTEX
  8
SST
 10
1.1590
 20
0.9810
 30
 0.0
  0
VERTEX
  8
SST
 10
1.2590
 20
0.9810
 30
 0.0
  0
VERTEX
  8
SST
 10
1.2590
 20
0.7810
 30
 0.0
  0
SEQEND
  8
SST
  0
POLYLINE
  8
SST
 66
      1
 70
1
 40
0.0040
 41
0.0040
  0
VERTEX
  8
SST
 10
1.2570
 20
0.7810
 30
 0.0
 42
1.0
  0
VERTEX
  8
SST
 10
1.2610
 20
0.7810
 30
 0.0
 42
1.0
  0
SEQEND
  8
SST
  0
POLYLINE
  8
SST
 66
      1
 70
1
 40
0.0040
 41
0.0040
  0
VERTEX
  8
SST
 10
1.2320
 20
0.7810
 30
 0.0
 42
1.0
  0
VERTEX
  8
SST
 10
1.2360
 20
0.7810
 30
 0.0
 42
1.0
  0
SEQEND
  8
SST
  0
POLYLINE
  8
SST
 66
      1
 70
1
 40
0.0040
 41
0.0040
  0
VERTEX
  8
SST
 10
1.2070
 20
0.8060
 30
 0.0
 42
1.0
  0
VERTEX
  8
SST
 10
1.2110
 20
0.8060
 30
 0.0
 42
1.0
  0
SEQEND
  8
SST
  0
POLYLINE
  8
SST
 66
      1
 70
1
 40
0.0040
 41
0.0040
  0
VERTEX
  8
SST
 10
1.1820
 20
0.7810
 30
 0.0
 42
1.0
  0
VERTEX
  8
SST
 10
1.1860
 20
0.7810
 30
 0.0
 42
1.0
  0
SEQEND
  8
SST
  0
POLYLINE
  8
SST
 66
      1
 70
1
 40
0.0040
 41
0.0040
  0
VERTEX
  8
SST
 10
1.1570
 20
0.7810
 30
 0.0
 42
1.0
  0
VERTEX
  8
SST
 10
1.1610
 20
0.7810
 30
 0.0
 42
1.0
  0
SEQEND
  8
SST
  0
POLYLINE
  8
SST
 66
      1
 70
1
 40
0.0040
 41
0.0040
  0
VERTEX
  8
SST
 10
1.1570
 20
0.9810
 30
 0.0
 42
1.0
  0
VERTEX
  8
SST
 10
1.1610
 20
0.9810
 30
 0.0
 42
1.0
  0
SEQEND
  8
SST
  0
POLYLINE
  8
SST
 66
      1
 70
1
 40
0.0040
 41
0.0040
  0
VERTEX
  8
SST
 10
1.2570
 20
0.9810
 30
 0.0
 42
1.0
  0
VERTEX
  8
SST
 10
1.2610
 20
0.9810
 30
 0.0
 42
1.0
  0
SEQEND
  8
SST
  0
POLYLINE
  8
SST
 66
      1
 70
1
 40
0.0040
 41
0.0040
  0
VERTEX
  8
SST
 10
1.2570
 20
0.7810
 30
 0.0
 42
1.0
  0
VERTEX
  8
SST
 10
1.2610
 20
0.7810
 30
 0.0
 42
1.0
  0
SEQEND
  8
SST
  0
POLYLINE
  8
SST
 66
      1
 70
1
 40
0.0060
 41
0.0060
  0
VERTEX
  8
SST
 10
1.3350
 20
0.6160
 30
 0.0
  0
VERTEX
  8
SST
 10
1.2850
 20
0.6160
 30
 0.0
  0
VERTEX
  8
SST
 10
1.2850
 20
0.5210
 30
 0.0
  0
VERTEX
  8
SST
 10
1.3350
 20
0.5210
 30
 0.0
  0
VERTEX
  8
SST
 10
1.3350
 20
0.6160
 30
 0.0
  0
SEQEND
  8
SST
  0
POLYLINE
  8
SST
 66
      1
 70
1
 40
0.0030
 41
0.0030
  0
VERTEX
  8
SST
 10
1.3335
 20
0.6160
 30
 0.0
 42
1.0
  0
VERTEX
  8
SST
 10
1.3365
 20
0.6160
 30
 0.0
 42
1.0
  0
SEQEND
  8
SST
  0
POLYLINE
  8
SST
 66
      1
 70
1
 40
0.0030
 41
0.0030
  0
VERTEX
  8
SST
 10
1.2835
 20
0.6160
 30
 0.0
 42
1.0
  0
VERTEX
  8
SST
 10
1.2865
 20
0.6160
 30
 0.0
 42
1.0
  0
SEQEND
  8
SST
  0
POLYLINE
  8
SST
 66
      1
 70
1
 40
0.0030
 41
0.0030
  0
VERTEX
  8
SST
 10
1.2835
 20
0.5210
 30
 0.0
 42
1.0
  0
VERTEX
  8
SST
 10
1.2865
 20
0.5210
 30
 0.0
 42
1.0
  0
SEQEND
  8
SST
  0
POLYLINE
  8
SST
 66
      1
 70
1
 40
0.0030
 41
0.0030
  0
VERTEX
  8
SST
 10
1.3335
 20
0.5210
 30
 0.0
 42
1.0
  0
VERTEX
  8
SST
 10
1.3365
 20
0.5210
 30
 0.0
 42
1.0
  0
SEQEND
  8
SST
  0
POLYLINE
  8
SST
 66
      1
 70
1
 40
0.0030
 41
0.0030
  0
VERTEX
  8
SST
 10
1.3335
 20
0.6160
 30
 0.0
 42
1.0
  0
VERTEX
  8
SST
 10
1.3365
 20
0.6160
 30
 0.0
 42
1.0
  0
SEQEND
  8
SST
  0
POLYLINE
  8
SST
 66
      1
 70
1
 40
0.0060
 41
0.0060
  0
VERTEX
  8
SST
 10
0.7470
 20
0.7300
 30
 0.0
  0
VERTEX
  8
SST
 10
0.7470
 20
0.6310
 30
 0.0
  0
VERTEX
  8
SST
 10
0.7980
 20
0.6310
 30
 0.0
  0
VERTEX
  8
SST
 10
0.7980
 20
0.7300
 30
 0.0
  0
VERTEX
  8
SST
 10
0.7470
 20
0.7300
 30
 0.0
  0
SEQEND
  8
SST
  0
POLYLINE
  8
SST
 66
      1
 70
1
 40
0.0030
 41
0.0030
  0
VERTEX
  8
SST
 10
0.7455
 20
0.7300
 30
 0.0
 42
1.0
  0
VERTEX
  8
SST
 10
0.7485
 20
0.7300
 30
 0.0
 42
1.0
  0
SEQEND
  8
SST
  0
POLYLINE
  8
SST
 66
      1
 70
1
 40
0.0030
 41
0.0030
  0
VERTEX
  8
SST
 10
0.7455
 20
0.6310
 30
 0.0
 42
1.0
  0
VERTEX
  8
SST
 10
0.7485
 20
0.6310
 30
 0.0
 42
1.0
  0
SEQEND
  8
SST
  0
POLYLINE
  8
SST
 66
      1
 70
1
 40
0.0030
 41
0.0030
  0
VERTEX
  8
SST
 10
0.7965
 20
0.6310
 30
 0.0
 42
1.0
  0
VERTEX
  8
SST
 10
0.7995
 20
0.6310
 30
 0.0
 42
1.0
  0
SEQEND
  8
SST
  0
POLYLINE
  8
SST
 66
      1
 70
1
 40
0.0030
 41
0.0030
  0
VERTEX
  8
SST
 10
0.7965
 20
0.7300
 30
 0.0
 42
1.0
  0
VERTEX
  8
SST
 10
0.7995
 20
0.7300
 30
 0.0
 42
1.0
  0
SEQEND
  8
SST
  0
POLYLINE
  8
SST
 66
      1
 70
1
 40
0.0030
 41
0.0030
  0
VERTEX
  8
SST
 10
0.7455
 20
0.7300
 30
 0.0
 42
1.0
  0
VERTEX
  8
SST
 10
0.7485
 20
0.7300
 30
 0.0
 42
1.0
  0
SEQEND
  8
SST
  0
POLYLINE
  8
SST
 66
      1
 70
0
 40
0.0060
 41
0.0060
  0
VERTEX
  8
SST
 10
1.3630
 20
0.7460
 30
 0.0
  0
VERTEX
  8
SST
 10
1.3890
 20
0.7460
 30
 0.0
  0
VERTEX
  8
SST
 10
1.3890
 20
0.7160
 30
 0.0
  0
SEQEND
  8
SST
  0
POLYLINE
  8
SST
 66
      1
 70
1
 40
0.0030
 41
0.0030
  0
VERTEX
  8
SST
 10
1.3615
 20
0.7460
 30
 0.0
 42
1.0
  0
VERTEX
  8
SST
 10
1.3645
 20
0.7460
 30
 0.0
 42
1.0
  0
SEQEND
  8
SST
  0
POLYLINE
  8
SST
 66
      1
 70
1
 40
0.0030
 41
0.0030
  0
VERTEX
  8
SST
 10
1.3875
 20
0.7460
 30
 0.0
 42
1.0
  0
VERTEX
  8
SST
 10
1.3905
 20
0.7460
 30
 0.0
 42
1.0
  0
SEQEND
  8
SST
  0
POLYLINE
  8
SST
 66
      1
 70
1
 40
0.0030
 41
0.0030
  0
VERTEX
  8
SST
 10
1.3875
 20
0.7160
 30
 0.0
 42
1.0
  0
VERTEX
  8
SST
 10
1.3905
 20
0.7160
 30
 0.0
 42
1.0
  0
SEQEND
  8
SST
  0
POLYLINE
  8
0
 66
      1
 70
1
 40
0.0080
 41
0.0080
  0
VERTEX
  8
0
 10
0.3100
 20
1.7410
 30
 0.0
  0
VERTEX
  8
0
 10
0.3100
 20
0.2900
 30
 0.0
  0
VERTEX
  8
0
 10
2.5900
 20
0.2900
 30
 0.0
  0
VERTEX
  8
0
 10
2.5900
 20
1.7410
 30
 0.0
  0
VERTEX
  8
0
 10
0.3100
 20
1.7410
 30
 0.0
  0
SEQEND
  8
0
  0
POLYLINE
  8
0
 66
      1
 70
1
 40
0.0040
 41
0.0040
  0
VERTEX
  8
0
 10
0.3080
 20
1.7410
 30
 0.0
 42
1.0
  0
VERTEX
  8
0
 10
0.3120
 20
1.7410
 30
 0.0
 42
1.0
  0
SEQEND
  8
0
  0
POLYLINE
  8
0
 66
      1
 70
1
 40
0.0040
 41
0.0040
  0
VERTEX
  8
0
 10
0.3080
 20
0.2900
 30
 0.0
 42
1.0
  0
VERTEX
  8
0
 10
0.3120
 20
0.2900
 30
 0.0
 42
1.0
  0
SEQEND
  8
0
  0
POLYLINE
  8
0
 66
      1
 70
1
 40
0.0040
 41
0.0040
  0
VERTEX
  8
0
 10
2.5880
 20
0.2900
 30
 0.0
 42
1.0
  0
VERTEX
  8
0
 10
2.5920
 20
0.2900
 30
 0.0
 42
1.0
  0
SEQEND
  8
0
  0
POLYLINE
  8
0
 66
      1
 70
1
 40
0.0040
 41
0.0040
  0
VERTEX
  8
0
 10
2.5880
 20
1.7410
 30
 0.0
 42
1.0
  0
VERTEX
  8
0
 10
2.5920
 20
1.7410
 30
 0.0
 42
1.0
  0
SEQEND
  8
0
  0
POLYLINE
  8
0
 66
      1
 70
1
 40
0.0040
 41
0.0040
  0
VERTEX
  8
0
 10
0.3080
 20
1.7410
 30
 0.0
 42
1.0
  0
VERTEX
  8
0
 10
0.3120
 20
1.7410
 30
 0.0
 42
1.0
  0
SEQEND
  8
0
  0
POLYLINE
  8
SST
 66
      1
 70
0
 40
0.0060
 41
0.0060
  0
VERTEX
  8
SST
 10
1.2640
 20
0.7160
 30
 0.0
  0
VERTEX
  8
SST
 10
1.2690
 20
0.7160
 30
 0.0
  0
VERTEX
  8
SST
 10
1.2690
 20
0.7460
 30
 0.0
  0
VERTEX
  8
SST
 10
1.2950
 20
0.7460
 30
 0.0
  0
SEQEND
  8
SST
  0
POLYLINE
  8
SST
 66
      1
 70
1
 40
0.0030
 41
0.0030
  0
VERTEX
  8
SST
 10
1.2625
 20
0.7160
 30
 0.0
 42
1.0
  0
VERTEX
  8
SST
 10
1.2655
 20
0.7160
 30
 0.0
 42
1.0
  0
SEQEND
  8
SST
  0
POLYLINE
  8
SST
 66
      1
 70
1
 40
0.0030
 41
0.0030
  0
VERTEX
  8
SST
 10
1.2675
 20
0.7160
 30
 0.0
 42
1.0
  0
VERTEX
  8
SST
 10
1.2705
 20
0.7160
 30
 0.0
 42
1.0
  0
SEQEND
  8
SST
  0
POLYLINE
  8
SST
 66
      1
 70
1
 40
0.0030
 41
0.0030
  0
VERTEX
  8
SST
 10
1.2675
 20
0.7460
 30
 0.0
 42
1.0
  0
VERTEX
  8
SST
 10
1.2705
 20
0.7460
 30
 0.0
 42
1.0
  0
SEQEND
  8
SST
  0
POLYLINE
  8
SST
 66
      1
 70
1
 40
0.0030
 41
0.0030
  0
VERTEX
  8
SST
 10
1.2935
 20
0.7460
 30
 0.0
 42
1.0
  0
VERTEX
  8
SST
 10
1.2965
 20
0.7460
 30
 0.0
 42
1.0
  0
SEQEND
  8
SST
  0
POLYLINE
  8
SST
 66
      1
 70
1
 40
0.0060
 41
0.0060
  0
VERTEX
  8
SST
 10
0.8650
 20
0.6170
 30
 0.0
  0
VERTEX
  8
SST
 10
0.8150
 20
0.6170
 30
 0.0
  0
VERTEX
  8
SST
 10
0.8150
 20
0.5220
 30
 0.0
  0
VERTEX
  8
SST
 10
0.8650
 20
0.5220
 30
 0.0
  0
VERTEX
  8
SST
 10
0.8650
 20
0.6170
 30
 0.0
  0
SEQEND
  8
SST
  0
POLYLINE
  8
SST
 66
      1
 70
1
 40
0.0030
 41
0.0030
  0
VERTEX
  8
SST
 10
0.8635
 20
0.6170
 30
 0.0
 42
1.0
  0
VERTEX
  8
SST
 10
0.8665
 20
0.6170
 30
 0.0
 42
1.0
  0
SEQEND
  8
SST
  0
POLYLINE
  8
SST
 66
      1
 70
1
 40
0.0030
 41
0.0030
  0
VERTEX
  8
SST
 10
0.8135
 20
0.6170
 30
 0.0
 42
1.0
  0
VERTEX
  8
SST
 10
0.8165
 20
0.6170
 30
 0.0
 42
1.0
  0
SEQEND
  8
SST
  0
POLYLINE
  8
SST
 66
      1
 70
1
 40
0.0030
 41
0.0030
  0
VERTEX
  8
SST
 10
0.8135
 20
0.5220
 30
 0.0
 42
1.0
  0
VERTEX
  8
SST
 10
0.8165
 20
0.5220
 30
 0.0
 42
1.0
  0
SEQEND
  8
SST
  0
POLYLINE
  8
SST
 66
      1
 70
1
 40
0.0030
 41
0.0030
  0
VERTEX
  8
SST
 10
0.8635
 20
0.5220
 30
 0.0
 42
1.0
  0
VERTEX
  8
SST
 10
0.8665
 20
0.5220
 30
 0.0
 42
1.0
  0
SEQEND
  8
SST
  0
POLYLINE
  8
SST
 66
      1
 70
1
 40
0.0030
 41
0.0030
  0
VERTEX
  8
SST
 10
0.8635
 20
0.6170
 30
 0.0
 42
1.0
  0
VERTEX
  8
SST
 10
0.8665
 20
0.6170
 30
 0.0
 42
1.0
  0
SEQEND
  8
SST
  0
POLYLINE
  8
SST
 66
      1
 70
1
 40
0.0060
 41
0.0060
  0
VERTEX
  8
SST
 10
0.8570
 20
0.5740
 30
 0.0
  0
VERTEX
  8
SST
 10
0.8220
 20
0.5740
 30
 0.0
  0
VERTEX
  8
SST
 10
0.8220
 20
0.5640
 30
 0.0
  0
VERTEX
  8
SST
 10
0.8570
 20
0.5640
 30
 0.0
  0
VERTEX
  8
SST
 10
0.8570
 20
0.5740
 30
 0.0
  0
SEQEND
  8
SST
  0
POLYLINE
  8
SST
 66
      1
 70
1
 40
0.0030
 41
0.0030
  0
VERTEX
  8
SST
 10
0.8555
 20
0.5740
 30
 0.0
 42
1.0
  0
VERTEX
  8
SST
 10
0.8585
 20
0.5740
 30
 0.0
 42
1.0
  0
SEQEND
  8
SST
  0
POLYLINE
  8
SST
 66
      1
 70
1
 40
0.0030
 41
0.0030
  0
VERTEX
  8
SST
 10
0.8205
 20
0.5740
 30
 0.0
 42
1.0
  0
VERTEX
  8
SST
 10
0.8235
 20
0.5740
 30
 0.0
 42
1.0
  0
SEQEND
  8
SST
  0
POLYLINE
  8
SST
 66
      1
 70
1
 40
0.0030
 41
0.0030
  0
VERTEX
  8
SST
 10
0.8205
 20
0.5640
 30
 0.0
 42
1.0
  0
VERTEX
  8
SST
 10
0.8235
 20
0.5640
 30
 0.0
 42
1.0
  0
SEQEND
  8
SST
  0
POLYLINE
  8
SST
 66
      1
 70
1
 40
0.0030
 41
0.0030
  0
VERTEX
  8
SST
 10
0.8555
 20
0.5640
 30
 0.0
 42
1.0
  0
VERTEX
  8
SST
 10
0.8585
 20
0.5640
 30
 0.0
 42
1.0
  0
SEQEND
  8
SST
  0
POLYLINE
  8
SST
 66
      1
 70
1
 40
0.0030
 41
0.0030
  0
VERTEX
  8
SST
 10
0.8555
 20
0.5740
 30
 0.0
 42
1.0
  0
VERTEX
  8
SST
 10
0.8585
 20
0.5740
 30
 0.0
 42
1.0
  0
SEQEND
  8
SST
  0
POLYLINE
  8
SST
 66
      1
 70
1
 40
0.0060
 41
0.0060
  0
VERTEX
  8
SST
 10
1.4280
 20
0.6600
 30
 0.0
  0
VERTEX
  8
SST
 10
1.4830
 20
0.6600
 30
 0.0
  0
VERTEX
  8
SST
 10
1.4830
 20
0.7650
 30
 0.0
  0
VERTEX
  8
SST
 10
1.4280
 20
0.7650
 30
 0.0
  0
VERTEX
  8
SST
 10
1.4280
 20
0.6600
 30
 0.0
  0
SEQEND
  8
SST
  0
POLYLINE
  8
SST
 66
      1
 70
1
 40
0.0030
 41
0.0030
  0
VERTEX
  8
SST
 10
1.4265
 20
0.6600
 30
 0.0
 42
1.0
  0
VERTEX
  8
SST
 10
1.4295
 20
0.6600
 30
 0.0
 42
1.0
  0
SEQEND
  8
SST
  0
POLYLINE
  8
SST
 66
      1
 70
1
 40
0.0030
 41
0.0030
  0
VERTEX
  8
SST
 10
1.4815
 20
0.6600
 30
 0.0
 42
1.0
  0
VERTEX
  8
SST
 10
1.4845
 20
0.6600
 30
 0.0
 42
1.0
  0
SEQEND
  8
SST
  0
POLYLINE
  8
SST
 66
      1
 70
1
 40
0.0030
 41
0.0030
  0
VERTEX
  8
SST
 10
1.4815
 20
0.7650
 30
 0.0
 42
1.0
  0
VERTEX
  8
SST
 10
1.4845
 20
0.7650
 30
 0.0
 42
1.0
  0
SEQEND
  8
SST
  0
POLYLINE
  8
SST
 66
      1
 70
1
 40
0.0030
 41
0.0030
  0
VERTEX
  8
SST
 10
1.4265
 20
0.7650
 30
 0.0
 42
1.0
  0
VERTEX
  8
SST
 10
1.4295
 20
0.7650
 30
 0.0
 42
1.0
  0
SEQEND
  8
SST
  0
POLYLINE
  8
SST
 66
      1
 70
1
 40
0.0030
 41
0.0030
  0
VERTEX
  8
SST
 10
1.4265
 20
0.6600
 30
 0.0
 42
1.0
  0
VERTEX
  8
SST
 10
1.4295
 20
0.6600
 30
 0.0
 42
1.0
  0
SEQEND
  8
SST
  0
POLYLINE
  8
SST
 66
      1
 70
0
 40
0.0060
 41
0.0060
  0
VERTEX
  8
SST
 10
1.4750
 20
0.7070
 30
 0.0
  0
VERTEX
  8
SST
 10
1.4300
 20
0.7070
 30
 0.0
  0
SEQEND
  8
SST
  0
POLYLINE
  8
SST
 66
      1
 70
1
 40
0.0030
 41
0.0030
  0
VERTEX
  8
SST
 10
1.4735
 20
0.7070
 30
 0.0
 42
1.0
  0
VERTEX
  8
SST
 10
1.4765
 20
0.7070
 30
 0.0
 42
1.0
  0
SEQEND
  8
SST
  0
POLYLINE
  8
SST
 66
      1
 70
1
 40
0.0030
 41
0.0030
  0
VERTEX
  8
SST
 10
1.4285
 20
0.7070
 30
 0.0
 42
1.0
  0
VERTEX
  8
SST
 10
1.4315
 20
0.7070
 30
 0.0
 42
1.0
  0
SEQEND
  8
SST
  0
POLYLINE
  8
SST
 66
      1
 70
1
 40
0.0060
 41
0.0060
  0
VERTEX
  8
SST
 10
1.4530
 20
0.7110
 30
 0.0
  0
VERTEX
  8
SST
 10
1.4750
 20
0.7200
 30
 0.0
  0
VERTEX
  8
SST
 10
1.4300
 20
0.7200
 30
 0.0
  0
VERTEX
  8
SST
 10
1.4530
 20
0.7110
 30
 0.0
  0
SEQEND
  8
SST
  0
POLYLINE
  8
SST
 66
      1
 70
1
 40
0.0030
 41
0.0030
  0
VERTEX
  8
SST
 10
1.4515
 20
0.7110
 30
 0.0
 42
1.0
  0
VERTEX
  8
SST
 10
1.4545
 20
0.7110
 30
 0.0
 42
1.0
  0
SEQEND
  8
SST
  0
POLYLINE
  8
SST
 66
      1
 70
1
 40
0.0030
 41
0.0030
  0
VERTEX
  8
SST
 10
1.4735
 20
0.7200
 30
 0.0
 42
1.0
  0
VERTEX
  8
SST
 10
1.4765
 20
0.7200
 30
 0.0
 42
1.0
  0
SEQEND
  8
SST
  0
POLYLINE
  8
SST
 66
      1
 70
1
 40
0.0030
 41
0.0030
  0
VERTEX
  8
SST
 10
1.4285
 20
0.7200
 30
 0.0
 42
1.0
  0
VERTEX
  8
SST
 10
1.4315
 20
0.7200
 30
 0.0
 42
1.0
  0
SEQEND
  8
SST
  0
POLYLINE
  8
SST
 66
      1
 70
1
 40
0.0030
 41
0.0030
  0
VERTEX
  8
SST
 10
1.4515
 20
0.7110
 30
 0.0
 42
1.0
  0
VERTEX
  8
SST
 10
1.4545
 20
0.7110
 30
 0.0
 42
1.0
  0
SEQEND
  8
SST
  0
POLYLINE
  8
SST
 66
      1
 70
1
 40
0.0060
 41
0.0060
  0
VERTEX
  8
SST
 10
0.7950
 20
0.9860
 30
 0.0
  0
VERTEX
  8
SST
 10
0.7950
 20
0.9260
 30
 0.0
  0
VERTEX
  8
SST
 10
0.7450
 20
0.9260
 30
 0.0
  0
VERTEX
  8
SST
 10
0.7450
 20
0.9860
 30
 0.0
  0
VERTEX
  8
SST
 10
0.7950
 20
0.9860
 30
 0.0
  0
SEQEND
  8
SST
  0
POLYLINE
  8
SST
 66
      1
 70
1
 40
0.0030
 41
0.0030
  0
VERTEX
  8
SST
 10
0.7935
 20
0.9860
 30
 0.0
 42
1.0
  0
VERTEX
  8
SST
 10
0.7965
 20
0.9860
 30
 0.0
 42
1.0
  0
SEQEND
  8
SST
  0
POLYLINE
  8
SST
 66
      1
 70
1
 40
0.0030
 41
0.0030
  0
VERTEX
  8
SST
 10
0.7935
 20
0.9260
 30
 0.0
 42
1.0
  0
VERTEX
  8
SST
 10
0.7965
 20
0.9260
 30
 0.0
 42
1.0
  0
SEQEND
  8
SST
  0
POLYLINE
  8
SST
 66
      1
 70
1
 40
0.0030
 41
0.0030
  0
VERTEX
  8
SST
 10
0.7435
 20
0.9260
 30
 0.0
 42
1.0
  0
VERTEX
  8
SST
 10
0.7465
 20
0.9260
 30
 0.0
 42
1.0
  0
SEQEND
  8
SST
  0
POLYLINE
  8
SST
 66
      1
 70
1
 40
0.0030
 41
0.0030
  0
VERTEX
  8
SST
 10
0.7435
 20
0.9860
 30
 0.0
 42
1.0
  0
VERTEX
  8
SST
 10
0.7465
 20
0.9860
 30
 0.0
 42
1.0
  0
SEQEND
  8
SST
  0
POLYLINE
  8
SST
 66
      1
 70
1
 40
0.0030
 41
0.0030
  0
VERTEX
  8
SST
 10
0.7935
 20
0.9860
 30
 0.0
 42
1.0
  0
VERTEX
  8
SST
 10
0.7965
 20
0.9860
 30
 0.0
 42
1.0
  0
SEQEND
  8
SST
  0
POLYLINE
  8
SST
 66
      1
 70
1
 40
0.0060
 41
0.0060
  0
VERTEX
  8
SST
 10
1.0260
 20
1.5110
 30
 0.0
  0
VERTEX
  8
SST
 10
0.9660
 20
1.5110
 30
 0.0
  0
VERTEX
  8
SST
 10
0.9660
 20
1.5610
 30
 0.0
  0
VERTEX
  8
SST
 10
1.0260
 20
1.5610
 30
 0.0
  0
VERTEX
  8
SST
 10
1.0260
 20
1.5110
 30
 0.0
  0
SEQEND
  8
SST
  0
POLYLINE
  8
SST
 66
      1
 70
1
 40
0.0030
 41
0.0030
  0
VERTEX
  8
SST
 10
1.0245
 20
1.5110
 30
 0.0
 42
1.0
  0
VERTEX
  8
SST
 10
1.0275
 20
1.5110
 30
 0.0
 42
1.0
  0
SEQEND
  8
SST
  0
POLYLINE
  8
SST
 66
      1
 70
1
 40
0.0030
 41
0.0030
  0
VERTEX
  8
SST
 10
0.9645
 20
1.5110
 30
 0.0
 42
1.0
  0
VERTEX
  8
SST
 10
0.9675
 20
1.5110
 30
 0.0
 42
1.0
  0
SEQEND
  8
SST
  0
POLYLINE
  8
SST
 66
      1
 70
1
 40
0.0030
 41
0.0030
  0
VERTEX
  8
SST
 10
0.9645
 20
1.5610
 30
 0.0
 42
1.0
  0
VERTEX
  8
SST
 10
0.9675
 20
1.5610
 30
 0.0
 42
1.0
  0
SEQEND
  8
SST
  0
POLYLINE
  8
SST
 66
      1
 70
1
 40
0.0030
 41
0.0030
  0
VERTEX
  8
SST
 10
1.0245
 20
1.5610
 30
 0.0
 42
1.0
  0
VERTEX
  8
SST
 10
1.0275
 20
1.5610
 30
 0.0
 42
1.0
  0
SEQEND
  8
SST
  0
POLYLINE
  8
SST
 66
      1
 70
1
 40
0.0030
 41
0.0030
  0
VERTEX
  8
SST
 10
1.0245
 20
1.5110
 30
 0.0
 42
1.0
  0
VERTEX
  8
SST
 10
1.0275
 20
1.5110
 30
 0.0
 42
1.0
  0
SEQEND
  8
SST
  0
POLYLINE
  8
SST
 66
      1
 70
1
 40
0.0060
 41
0.0060
  0
VERTEX
  8
SST
 10
1.7110
 20
1.2210
 30
 0.0
  0
VERTEX
  8
SST
 10
1.7110
 20
1.1260
 30
 0.0
  0
VERTEX
  8
SST
 10
1.6610
 20
1.1260
 30
 0.0
  0
VERTEX
  8
SST
 10
1.6610
 20
1.2210
 30
 0.0
  0
VERTEX
  8
SST
 10
1.7110
 20
1.2210
 30
 0.0
  0
SEQEND
  8
SST
  0
POLYLINE
  8
SST
 66
      1
 70
1
 40
0.0030
 41
0.0030
  0
VERTEX
  8
SST
 10
1.7095
 20
1.2210
 30
 0.0
 42
1.0
  0
VERTEX
  8
SST
 10
1.7125
 20
1.2210
 30
 0.0
 42
1.0
  0
SEQEND
  8
SST
  0
POLYLINE
  8
SST
 66
      1
 70
1
 40
0.0030
 41
0.0030
  0
VERTEX
  8
SST
 10
1.7095
 20
1.1260
 30
 0.0
 42
1.0
  0
VERTEX
  8
SST
 10
1.7125
 20
1.1260
 30
 0.0
 42
1.0
  0
SEQEND
  8
SST
  0
POLYLINE
  8
SST
 66
      1
 70
1
 40
0.0030
 41
0.0030
  0
VERTEX
  8
SST
 10
1.6595
 20
1.1260
 30
 0.0
 42
1.0
  0
VERTEX
  8
SST
 10
1.6625
 20
1.1260
 30
 0.0
 42
1.0
  0
SEQEND
  8
SST
  0
POLYLINE
  8
SST
 66
      1
 70
1
 40
0.0030
 41
0.0030
  0
VERTEX
  8
SST
 10
1.6595
 20
1.2210
 30
 0.0
 42
1.0
  0
VERTEX
  8
SST
 10
1.6625
 20
1.2210
 30
 0.0
 42
1.0
  0
SEQEND
  8
SST
  0
POLYLINE
  8
SST
 66
      1
 70
1
 40
0.0030
 41
0.0030
  0
VERTEX
  8
SST
 10
1.7095
 20
1.2210
 30
 0.0
 42
1.0
  0
VERTEX
  8
SST
 10
1.7125
 20
1.2210
 30
 0.0
 42
1.0
  0
SEQEND
  8
SST
  0
POLYLINE
  8
SST
 66
      1
 70
1
 40
0.0060
 41
0.0060
  0
VERTEX
  8
SST
 10
1.7030
 20
1.1780
 30
 0.0
  0
VERTEX
  8
SST
 10
1.6680
 20
1.1780
 30
 0.0
  0
VERTEX
  8
SST
 10
1.6680
 20
1.1680
 30
 0.0
  0
VERTEX
  8
SST
 10
1.7030
 20
1.1680
 30
 0.0
  0
VERTEX
  8
SST
 10
1.7030
 20
1.1780
 30
 0.0
  0
SEQEND
  8
SST
  0
POLYLINE
  8
SST
 66
      1
 70
1
 40
0.0030
 41
0.0030
  0
VERTEX
  8
SST
 10
1.7015
 20
1.1780
 30
 0.0
 42
1.0
  0
VERTEX
  8
SST
 10
1.7045
 20
1.1780
 30
 0.0
 42
1.0
  0
SEQEND
  8
SST
  0
POLYLINE
  8
SST
 66
      1
 70
1
 40
0.0030
 41
0.0030
  0
VERTEX
  8
SST
 10
1.6665
 20
1.1780
 30
 0.0
 42
1.0
  0
VERTEX
  8
SST
 10
1.6695
 20
1.1780
 30
 0.0
 42
1.0
  0
SEQEND
  8
SST
  0
POLYLINE
  8
SST
 66
      1
 70
1
 40
0.0030
 41
0.0030
  0
VERTEX
  8
SST
 10
1.6665
 20
1.1680
 30
 0.0
 42
1.0
  0
VERTEX
  8
SST
 10
1.6695
 20
1.1680
 30
 0.0
 42
1.0
  0
SEQEND
  8
SST
  0
POLYLINE
  8
SST
 66
      1
 70
1
 40
0.0030
 41
0.0030
  0
VERTEX
  8
SST
 10
1.7015
 20
1.1680
 30
 0.0
 42
1.0
  0
VERTEX
  8
SST
 10
1.7045
 20
1.1680
 30
 0.0
 42
1.0
  0
SEQEND
  8
SST
  0
POLYLINE
  8
SST
 66
      1
 70
1
 40
0.0030
 41
0.0030
  0
VERTEX
  8
SST
 10
1.7015
 20
1.1780
 30
 0.0
 42
1.0
  0
VERTEX
  8
SST
 10
1.7045
 20
1.1780
 30
 0.0
 42
1.0
  0
SEQEND
  8
SST
  0
POLYLINE
  8
SST
 66
      1
 70
1
 40
0.0060
 41
0.0060
  0
VERTEX
  8
SST
 10
0.8790
 20
0.5210
 30
 0.0
  0
VERTEX
  8
SST
 10
0.9290
 20
0.5210
 30
 0.0
  0
VERTEX
  8
SST
 10
0.9290
 20
0.6160
 30
 0.0
  0
VERTEX
  8
SST
 10
0.8790
 20
0.6160
 30
 0.0
  0
VERTEX
  8
SST
 10
0.8790
 20
0.5210
 30
 0.0
  0
SEQEND
  8
SST
  0
POLYLINE
  8
SST
 66
      1
 70
1
 40
0.0030
 41
0.0030
  0
VERTEX
  8
SST
 10
0.8775
 20
0.5210
 30
 0.0
 42
1.0
  0
VERTEX
  8
SST
 10
0.8805
 20
0.5210
 30
 0.0
 42
1.0
  0
SEQEND
  8
SST
  0
POLYLINE
  8
SST
 66
      1
 70
1
 40
0.0030
 41
0.0030
  0
VERTEX
  8
SST
 10
0.9275
 20
0.5210
 30
 0.0
 42
1.0
  0
VERTEX
  8
SST
 10
0.9305
 20
0.5210
 30
 0.0
 42
1.0
  0
SEQEND
  8
SST
  0
POLYLINE
  8
SST
 66
      1
 70
1
 40
0.0030
 41
0.0030
  0
VERTEX
  8
SST
 10
0.9275
 20
0.6160
 30
 0.0
 42
1.0
  0
VERTEX
  8
SST
 10
0.9305
 20
0.6160
 30
 0.0
 42
1.0
  0
SEQEND
  8
SST
  0
POLYLINE
  8
SST
 66
      1
 70
1
 40
0.0030
 41
0.0030
  0
VERTEX
  8
SST
 10
0.8775
 20
0.6160
 30
 0.0
 42
1.0
  0
VERTEX
  8
SST
 10
0.8805
 20
0.6160
 30
 0.0
 42
1.0
  0
SEQEND
  8
SST
  0
POLYLINE
  8
SST
 66
      1
 70
1
 40
0.0030
 41
0.0030
  0
VERTEX
  8
SST
 10
0.8775
 20
0.5210
 30
 0.0
 42
1.0
  0
VERTEX
  8
SST
 10
0.8805
 20
0.5210
 30
 0.0
 42
1.0
  0
SEQEND
  8
SST
  0
POLYLINE
  8
SST
 66
      1
 70
1
 40
0.0060
 41
0.0060
  0
VERTEX
  8
SST
 10
0.8860
 20
0.5630
 30
 0.0
  0
VERTEX
  8
SST
 10
0.9210
 20
0.5630
 30
 0.0
  0
VERTEX
  8
SST
 10
0.9210
 20
0.5730
 30
 0.0
  0
VERTEX
  8
SST
 10
0.8860
 20
0.5730
 30
 0.0
  0
VERTEX
  8
SST
 10
0.8860
 20
0.5630
 30
 0.0
  0
SEQEND
  8
SST
  0
POLYLINE
  8
SST
 66
      1
 70
1
 40
0.0030
 41
0.0030
  0
VERTEX
  8
SST
 10
0.8845
 20
0.5630
 30
 0.0
 42
1.0
  0
VERTEX
  8
SST
 10
0.8875
 20
0.5630
 30
 0.0
 42
1.0
  0
SEQEND
  8
SST
  0
POLYLINE
  8
SST
 66
      1
 70
1
 40
0.0030
 41
0.0030
  0
VERTEX
  8
SST
 10
0.9195
 20
0.5630
 30
 0.0
 42
1.0
  0
VERTEX
  8
SST
 10
0.9225
 20
0.5630
 30
 0.0
 42
1.0
  0
SEQEND
  8
SST
  0
POLYLINE
  8
SST
 66
      1
 70
1
 40
0.0030
 41
0.0030
  0
VERTEX
  8
SST
 10
0.9195
 20
0.5730
 30
 0.0
 42
1.0
  0
VERTEX
  8
SST
 10
0.9225
 20
0.5730
 30
 0.0
 42
1.0
  0
SEQEND
  8
SST
  0
POLYLINE
  8
SST
 66
      1
 70
1
 40
0.0030
 41
0.0030
  0
VERTEX
  8
SST
 10
0.8845
 20
0.5730
 30
 0.0
 42
1.0
  0
VERTEX
  8
SST
 10
0.8875
 20
0.5730
 30
 0.0
 42
1.0
  0
SEQEND
  8
SST
  0
POLYLINE
  8
SST
 66
      1
 70
1
 40
0.0030
 41
0.0030
  0
VERTEX
  8
SST
 10
0.8845
 20
0.5630
 30
 0.0
 42
1.0
  0
VERTEX
  8
SST
 10
0.8875
 20
0.5630
 30
 0.0
 42
1.0
  0
SEQEND
  8
SST
  0
POLYLINE
  8
SST
 66
      1
 70
1
 40
0.0080
 41
0.0080
  0
VERTEX
  8
SST
 10
1.7610
 20
0.3910
 30
 0.0
  0
VERTEX
  8
SST
 10
2.2010
 20
0.3910
 30
 0.0
  0
VERTEX
  8
SST
 10
2.2010
 20
0.6710
 30
 0.0
  0
VERTEX
  8
SST
 10
1.7610
 20
0.6710
 30
 0.0
  0
VERTEX
  8
SST
 10
1.7610
 20
0.3910
 30
 0.0
  0
SEQEND
  8
SST
  0
POLYLINE
  8
SST
 66
      1
 70
1
 40
0.0040
 41
0.0040
  0
VERTEX
  8
SST
 10
1.7590
 20
0.3910
 30
 0.0
 42
1.0
  0
VERTEX
  8
SST
 10
1.7630
 20
0.3910
 30
 0.0
 42
1.0
  0
SEQEND
  8
SST
  0
POLYLINE
  8
SST
 66
      1
 70
1
 40
0.0040
 41
0.0040
  0
VERTEX
  8
SST
 10
2.1990
 20
0.3910
 30
 0.0
 42
1.0
  0
VERTEX
  8
SST
 10
2.2030
 20
0.3910
 30
 0.0
 42
1.0
  0
SEQEND
  8
SST
  0
POLYLINE
  8
SST
 66
      1
 70
1
 40
0.0040
 41
0.0040
  0
VERTEX
  8
SST
 10
2.1990
 20
0.6710
 30
 0.0
 42
1.0
  0
VERTEX
  8
SST
 10
2.2030
 20
0.6710
 30
 0.0
 42
1.0
  0
SEQEND
  8
SST
  0
POLYLINE
  8
SST
 66
      1
 70
1
 40
0.0040
 41
0.0040
  0
VERTEX
  8
SST
 10
1.7590
 20
0.6710
 30
 0.0
 42
1.0
  0
VERTEX
  8
SST
 10
1.7630
 20
0.6710
 30
 0.0
 42
1.0
  0
SEQEND
  8
SST
  0
POLYLINE
  8
SST
 66
      1
 70
1
 40
0.0040
 41
0.0040
  0
VERTEX
  8
SST
 10
1.7590
 20
0.3910
 30
 0.0
 42
1.0
  0
VERTEX
  8
SST
 10
1.7630
 20
0.3910
 30
 0.0
 42
1.0
  0
SEQEND
  8
SST
  0
POLYLINE
  8
SST
 66
      1
 70
1
 40
0.0060
 41
0.0060
  0
VERTEX
  8
SST
 10
1.0490
 20
0.9400
 30
 0.0
  0
VERTEX
  8
SST
 10
1.0490
 20
0.9900
 30
 0.0
  0
VERTEX
  8
SST
 10
0.9540
 20
0.9900
 30
 0.0
  0
VERTEX
  8
SST
 10
0.9540
 20
0.9400
 30
 0.0
  0
VERTEX
  8
SST
 10
1.0490
 20
0.9400
 30
 0.0
  0
SEQEND
  8
SST
  0
POLYLINE
  8
SST
 66
      1
 70
1
 40
0.0030
 41
0.0030
  0
VERTEX
  8
SST
 10
1.0475
 20
0.9400
 30
 0.0
 42
1.0
  0
VERTEX
  8
SST
 10
1.0505
 20
0.9400
 30
 0.0
 42
1.0
  0
SEQEND
  8
SST
  0
POLYLINE
  8
SST
 66
      1
 70
1
 40
0.0030
 41
0.0030
  0
VERTEX
  8
SST
 10
1.0475
 20
0.9900
 30
 0.0
 42
1.0
  0
VERTEX
  8
SST
 10
1.0505
 20
0.9900
 30
 0.0
 42
1.0
  0
SEQEND
  8
SST
  0
POLYLINE
  8
SST
 66
      1
 70
1
 40
0.0030
 41
0.0030
  0
VERTEX
  8
SST
 10
0.9525
 20
0.9900
 30
 0.0
 42
1.0
  0
VERTEX
  8
SST
 10
0.9555
 20
0.9900
 30
 0.0
 42
1.0
  0
SEQEND
  8
SST
  0
POLYLINE
  8
SST
 66
      1
 70
1
 40
0.0030
 41
0.0030
  0
VERTEX
  8
SST
 10
0.9525
 20
0.9400
 30
 0.0
 42
1.0
  0
VERTEX
  8
SST
 10
0.9555
 20
0.9400
 30
 0.0
 42
1.0
  0
SEQEND
  8
SST
  0
POLYLINE
  8
SST
 66
      1
 70
1
 40
0.0030
 41
0.0030
  0
VERTEX
  8
SST
 10
1.0475
 20
0.9400
 30
 0.0
 42
1.0
  0
VERTEX
  8
SST
 10
1.0505
 20
0.9400
 30
 0.0
 42
1.0
  0
SEQEND
  8
SST
  0
POLYLINE
  8
SST
 66
      1
 70
0
 40
0.0080
 41
0.0080
  0
VERTEX
  8
SST
 10
0.6180
 20
0.4460
 30
 0.0
 42
0.9999999999999999
  0
VERTEX
  8
SST
 10
0.3100
 20
0.4460
 30
 0.0
  0
SEQEND
  8
SST
  0
POLYLINE
  8
SST
 66
      1
 70
1
 40
0.0040
 41
0.0040
  0
VERTEX
  8
SST
 10
0.6160
 20
0.4460
 30
 0.0
 42
1.0
  0
VERTEX
  8
SST
 10
0.6200
 20
0.4460
 30
 0.0
 42
1.0
  0
SEQEND
  8
SST
  0
POLYLINE
  8
SST
 66
      1
 70
1
 40
0.0040
 41
0.0040
  0
VERTEX
  8
SST
 10
0.3080
 20
0.4460
 30
 0.0
 42
1.0
  0
VERTEX
  8
SST
 10
0.3120
 20
0.4460
 30
 0.0
 42
1.0
  0
SEQEND
  8
SST
  0
POLYLINE
  8
SST
 66
      1
 70
0
 40
0.0080
 41
0.0080
  0
VERTEX
  8
SST
 10
0.3100
 20
0.4460
 30
 0.0
 42
0.9999999999999999
  0
VERTEX
  8
SST
 10
0.6180
 20
0.4460
 30
 0.0
  0
SEQEND
  8
SST
  0
POLYLINE
  8
SST
 66
      1
 70
1
 40
0.0040
 41
0.0040
  0
VERTEX
  8
SST
 10
0.3080
 20
0.4460
 30
 0.0
 42
1.0
  0
VERTEX
  8
SST
 10
0.3120
 20
0.4460
 30
 0.0
 42
1.0
  0
SEQEND
  8
SST
  0
POLYLINE
  8
SST
 66
      1
 70
1
 40
0.0040
 41
0.0040
  0
VERTEX
  8
SST
 10
0.6160
 20
0.4460
 30
 0.0
 42
1.0
  0
VERTEX
  8
SST
 10
0.6200
 20
0.4460
 30
 0.0
 42
1.0
  0
SEQEND
  8
SST
  0
POLYLINE
  8
SST
 66
      1
 70
0
 40
0.0080
 41
0.0080
  0
VERTEX
  8
SST
 10
2.5900
 20
1.5880
 30
 0.0
 42
0.9999999999999999
  0
VERTEX
  8
SST
 10
2.2820
 20
1.5880
 30
 0.0
  0
SEQEND
  8
SST
  0
POLYLINE
  8
SST
 66
      1
 70
1
 40
0.0040
 41
0.0040
  0
VERTEX
  8
SST
 10
2.5880
 20
1.5880
 30
 0.0
 42
1.0
  0
VERTEX
  8
SST
 10
2.5920
 20
1.5880
 30
 0.0
 42
1.0
  0
SEQEND
  8
SST
  0
POLYLINE
  8
SST
 66
      1
 70
1
 40
0.0040
 41
0.0040
  0
VERTEX
  8
SST
 10
2.2800
 20
1.5880
 30
 0.0
 42
1.0
  0
VERTEX
  8
SST
 10
2.2840
 20
1.5880
 30
 0.0
 42
1.0
  0
SEQEND
  8
SST
  0
POLYLINE
  8
SST
 66
      1
 70
0
 40
0.0080
 41
0.0080
  0
VERTEX
  8
SST
 10
2.2820
 20
1.5880
 30
 0.0
 42
0.9999999999999999
  0
VERTEX
  8
SST
 10
2.5900
 20
1.5880
 30
 0.0
  0
SEQEND
  8
SST
  0
POLYLINE
  8
SST
 66
      1
 70
1
 40
0.0040
 41
0.0040
  0
VERTEX
  8
SST
 10
2.2800
 20
1.5880
 30
 0.0
 42
1.0
  0
VERTEX
  8
SST
 10
2.2840
 20
1.5880
 30
 0.0
 42
1.0
  0
SEQEND
  8
SST
  0
POLYLINE
  8
SST
 66
      1
 70
1
 40
0.0040
 41
0.0040
  0
VERTEX
  8
SST
 10
2.5880
 20
1.5880
 30
 0.0
 42
1.0
  0
VERTEX
  8
SST
 10
2.5920
 20
1.5880
 30
 0.0
 42
1.0
  0
SEQEND
  8
SST
  0
POLYLINE
  8
SST
 66
      1
 70
1
 40
0.0060
 41
0.0060
  0
VERTEX
  8
SST
 10
1.0060
 20
0.9470
 30
 0.0
  0
VERTEX
  8
SST
 10
1.0060
 20
0.9820
 30
 0.0
  0
VERTEX
  8
SST
 10
0.9960
 20
0.9820
 30
 0.0
  0
VERTEX
  8
SST
 10
0.9960
 20
0.9470
 30
 0.0
  0
VERTEX
  8
SST
 10
1.0060
 20
0.9470
 30
 0.0
  0
SEQEND
  8
SST
  0
POLYLINE
  8
SST
 66
      1
 70
1
 40
0.0030
 41
0.0030
  0
VERTEX
  8
SST
 10
1.0045
 20
0.9470
 30
 0.0
 42
1.0
  0
VERTEX
  8
SST
 10
1.0075
 20
0.9470
 30
 0.0
 42
1.0
  0
SEQEND
  8
SST
  0
POLYLINE
  8
SST
 66
      1
 70
1
 40
0.0030
 41
0.0030
  0
VERTEX
  8
SST
 10
1.0045
 20
0.9820
 30
 0.0
 42
1.0
  0
VERTEX
  8
SST
 10
1.0075
 20
0.9820
 30
 0.0
 42
1.0
  0
SEQEND
  8
SST
  0
POLYLINE
  8
SST
 66
      1
 70
1
 40
0.0030
 41
0.0030
  0
VERTEX
  8
SST
 10
0.9945
 20
0.9820
 30
 0.0
 42
1.0
  0
VERTEX
  8
SST
 10
0.9975
 20
0.9820
 30
 0.0
 42
1.0
  0
SEQEND
  8
SST
  0
POLYLINE
  8
SST
 66
      1
 70
1
 40
0.0030
 41
0.0030
  0
VERTEX
  8
SST
 10
0.9945
 20
0.9470
 30
 0.0
 42
1.0
  0
VERTEX
  8
SST
 10
0.9975
 20
0.9470
 30
 0.0
 42
1.0
  0
SEQEND
  8
SST
  0
POLYLINE
  8
SST
 66
      1
 70
1
 40
0.0030
 41
0.0030
  0
VERTEX
  8
SST
 10
1.0045
 20
0.9470
 30
 0.0
 42
1.0
  0
VERTEX
  8
SST
 10
1.0075
 20
0.9470
 30
 0.0
 42
1.0
  0
SEQEND
  8
SST
  0
POLYLINE
  8
SST
 66
      1
 70
1
 40
0.0060
 41
0.0060
  0
VERTEX
  8
SST
 10
1.0490
 20
0.5210
 30
 0.0
  0
VERTEX
  8
SST
 10
1.0990
 20
0.5210
 30
 0.0
  0
VERTEX
  8
SST
 10
1.0990
 20
0.6160
 30
 0.0
  0
VERTEX
  8
SST
 10
1.0490
 20
0.6160
 30
 0.0
  0
VERTEX
  8
SST
 10
1.0490
 20
0.5210
 30
 0.0
  0
SEQEND
  8
SST
  0
POLYLINE
  8
SST
 66
      1
 70
1
 40
0.0030
 41
0.0030
  0
VERTEX
  8
SST
 10
1.0475
 20
0.5210
 30
 0.0
 42
1.0
  0
VERTEX
  8
SST
 10
1.0505
 20
0.5210
 30
 0.0
 42
1.0
  0
SEQEND
  8
SST
  0
POLYLINE
  8
SST
 66
      1
 70
1
 40
0.0030
 41
0.0030
  0
VERTEX
  8
SST
 10
1.0975
 20
0.5210
 30
 0.0
 42
1.0
  0
VERTEX
  8
SST
 10
1.1005
 20
0.5210
 30
 0.0
 42
1.0
  0
SEQEND
  8
SST
  0
POLYLINE
  8
SST
 66
      1
 70
1
 40
0.0030
 41
0.0030
  0
VERTEX
  8
SST
 10
1.0975
 20
0.6160
 30
 0.0
 42
1.0
  0
VERTEX
  8
SST
 10
1.1005
 20
0.6160
 30
 0.0
 42
1.0
  0
SEQEND
  8
SST
  0
POLYLINE
  8
SST
 66
      1
 70
1
 40
0.0030
 41
0.0030
  0
VERTEX
  8
SST
 10
1.0475
 20
0.6160
 30
 0.0
 42
1.0
  0
VERTEX
  8
SST
 10
1.0505
 20
0.6160
 30
 0.0
 42
1.0
  0
SEQEND
  8
SST
  0
POLYLINE
  8
SST
 66
      1
 70
1
 40
0.0030
 41
0.0030
  0
VERTEX
  8
SST
 10
1.0475
 20
0.5210
 30
 0.0
 42
1.0
  0
VERTEX
  8
SST
 10
1.0505
 20
0.5210
 30
 0.0
 42
1.0
  0
SEQEND
  8
SST
  0
POLYLINE
  8
SST
 66
      1
 70
1
 40
0.0060
 41
0.0060
  0
VERTEX
  8
SST
 10
1.0560
 20
0.5630
 30
 0.0
  0
VERTEX
  8
SST
 10
1.0910
 20
0.5630
 30
 0.0
  0
VERTEX
  8
SST
 10
1.0910
 20
0.5730
 30
 0.0
  0
VERTEX
  8
SST
 10
1.0560
 20
0.5730
 30
 0.0
  0
VERTEX
  8
SST
 10
1.0560
 20
0.5630
 30
 0.0
  0
SEQEND
  8
SST
  0
POLYLINE
  8
SST
 66
      1
 70
1
 40
0.0030
 41
0.0030
  0
VERTEX
  8
SST
 10
1.0545
 20
0.5630
 30
 0.0
 42
1.0
  0
VERTEX
  8
SST
 10
1.0575
 20
0.5630
 30
 0.0
 42
1.0
  0
SEQEND
  8
SST
  0
POLYLINE
  8
SST
 66
      1
 70
1
 40
0.0030
 41
0.0030
  0
VERTEX
  8
SST
 10
1.0895
 20
0.5630
 30
 0.0
 42
1.0
  0
VERTEX
  8
SST
 10
1.0925
 20
0.5630
 30
 0.0
 42
1.0
  0
SEQEND
  8
SST
  0
POLYLINE
  8
SST
 66
      1
 70
1
 40
0.0030
 41
0.0030
  0
VERTEX
  8
SST
 10
1.0895
 20
0.5730
 30
 0.0
 42
1.0
  0
VERTEX
  8
SST
 10
1.0925
 20
0.5730
 30
 0.0
 42
1.0
  0
SEQEND
  8
SST
  0
POLYLINE
  8
SST
 66
      1
 70
1
 40
0.0030
 41
0.0030
  0
VERTEX
  8
SST
 10
1.0545
 20
0.5730
 30
 0.0
 42
1.0
  0
VERTEX
  8
SST
 10
1.0575
 20
0.5730
 30
 0.0
 42
1.0
  0
SEQEND
  8
SST
  0
POLYLINE
  8
SST
 66
      1
 70
1
 40
0.0030
 41
0.0030
  0
VERTEX
  8
SST
 10
1.0545
 20
0.5630
 30
 0.0
 42
1.0
  0
VERTEX
  8
SST
 10
1.0575
 20
0.5630
 30
 0.0
 42
1.0
  0
SEQEND
  8
SST
  0
POLYLINE
  8
SST
 66
      1
 70
1
 40
0.0060
 41
0.0060
  0
VERTEX
  8
SST
 10
1.7160
 20
0.7800
 30
 0.0
  0
VERTEX
  8
SST
 10
1.7160
 20
0.6850
 30
 0.0
  0
VERTEX
  8
SST
 10
1.6660
 20
0.6850
 30
 0.0
  0
VERTEX
  8
SST
 10
1.6660
 20
0.7800
 30
 0.0
  0
VERTEX
  8
SST
 10
1.7160
 20
0.7800
 30
 0.0
  0
SEQEND
  8
SST
  0
POLYLINE
  8
SST
 66
      1
 70
1
 40
0.0030
 41
0.0030
  0
VERTEX
  8
SST
 10
1.7145
 20
0.7800
 30
 0.0
 42
1.0
  0
VERTEX
  8
SST
 10
1.7175
 20
0.7800
 30
 0.0
 42
1.0
  0
SEQEND
  8
SST
  0
POLYLINE
  8
SST
 66
      1
 70
1
 40
0.0030
 41
0.0030
  0
VERTEX
  8
SST
 10
1.7145
 20
0.6850
 30
 0.0
 42
1.0
  0
VERTEX
  8
SST
 10
1.7175
 20
0.6850
 30
 0.0
 42
1.0
  0
SEQEND
  8
SST
  0
POLYLINE
  8
SST
 66
      1
 70
1
 40
0.0030
 41
0.0030
  0
VERTEX
  8
SST
 10
1.6645
 20
0.6850
 30
 0.0
 42
1.0
  0
VERTEX
  8
SST
 10
1.6675
 20
0.6850
 30
 0.0
 42
1.0
  0
SEQEND
  8
SST
  0
POLYLINE
  8
SST
 66
      1
 70
1
 40
0.0030
 41
0.0030
  0
VERTEX
  8
SST
 10
1.6645
 20
0.7800
 30
 0.0
 42
1.0
  0
VERTEX
  8
SST
 10
1.6675
 20
0.7800
 30
 0.0
 42
1.0
  0
SEQEND
  8
SST
  0
POLYLINE
  8
SST
 66
      1
 70
1
 40
0.0030
 41
0.0030
  0
VERTEX
  8
SST
 10
1.7145
 20
0.7800
 30
 0.0
 42
1.0
  0
VERTEX
  8
SST
 10
1.7175
 20
0.7800
 30
 0.0
 42
1.0
  0
SEQEND
  8
SST
  0
POLYLINE
  8
SST
 66
      1
 70
1
 40
0.0060
 41
0.0060
  0
VERTEX
  8
SST
 10
1.7080
 20
0.7370
 30
 0.0
  0
VERTEX
  8
SST
 10
1.6730
 20
0.7370
 30
 0.0
  0
VERTEX
  8
SST
 10
1.6730
 20
0.7270
 30
 0.0
  0
VERTEX
  8
SST
 10
1.7080
 20
0.7270
 30
 0.0
  0
VERTEX
  8
SST
 10
1.7080
 20
0.7370
 30
 0.0
  0
SEQEND
  8
SST
  0
POLYLINE
  8
SST
 66
      1
 70
1
 40
0.0030
 41
0.0030
  0
VERTEX
  8
SST
 10
1.7065
 20
0.7370
 30
 0.0
 42
1.0
  0
VERTEX
  8
SST
 10
1.7095
 20
0.7370
 30
 0.0
 42
1.0
  0
SEQEND
  8
SST
  0
POLYLINE
  8
SST
 66
      1
 70
1
 40
0.0030
 41
0.0030
  0
VERTEX
  8
SST
 10
1.6715
 20
0.7370
 30
 0.0
 42
1.0
  0
VERTEX
  8
SST
 10
1.6745
 20
0.7370
 30
 0.0
 42
1.0
  0
SEQEND
  8
SST
  0
POLYLINE
  8
SST
 66
      1
 70
1
 40
0.0030
 41
0.0030
  0
VERTEX
  8
SST
 10
1.6715
 20
0.7270
 30
 0.0
 42
1.0
  0
VERTEX
  8
SST
 10
1.6745
 20
0.7270
 30
 0.0
 42
1.0
  0
SEQEND
  8
SST
  0
POLYLINE
  8
SST
 66
      1
 70
1
 40
0.0030
 41
0.0030
  0
VERTEX
  8
SST
 10
1.7065
 20
0.7270
 30
 0.0
 42
1.0
  0
VERTEX
  8
SST
 10
1.7095
 20
0.7270
 30
 0.0
 42
1.0
  0
SEQEND
  8
SST
  0
POLYLINE
  8
SST
 66
      1
 70
1
 40
0.0030
 41
0.0030
  0
VERTEX
  8
SST
 10
1.7065
 20
0.7370
 30
 0.0
 42
1.0
  0
VERTEX
  8
SST
 10
1.7095
 20
0.7370
 30
 0.0
 42
1.0
  0
SEQEND
  8
SST
  0
POLYLINE
  8
SST
 66
      1
 70
1
 40
0.0060
 41
0.0060
  0
VERTEX
  8
SST
 10
2.5280
 20
1.1800
 30
 0.0
  0
VERTEX
  8
SST
 10
2.4680
 20
1.1800
 30
 0.0
  0
VERTEX
  8
SST
 10
2.4680
 20
1.2300
 30
 0.0
  0
VERTEX
  8
SST
 10
2.5280
 20
1.2300
 30
 0.0
  0
VERTEX
  8
SST
 10
2.5280
 20
1.1800
 30
 0.0
  0
SEQEND
  8
SST
  0
POLYLINE
  8
SST
 66
      1
 70
1
 40
0.0030
 41
0.0030
  0
VERTEX
  8
SST
 10
2.5265
 20
1.1800
 30
 0.0
 42
1.0
  0
VERTEX
  8
SST
 10
2.5295
 20
1.1800
 30
 0.0
 42
1.0
  0
SEQEND
  8
SST
  0
POLYLINE
  8
SST
 66
      1
 70
1
 40
0.0030
 41
0.0030
  0
VERTEX
  8
SST
 10
2.4665
 20
1.1800
 30
 0.0
 42
1.0
  0
VERTEX
  8
SST
 10
2.4695
 20
1.1800
 30
 0.0
 42
1.0
  0
SEQEND
  8
SST
  0
POLYLINE
  8
SST
 66
      1
 70
1
 40
0.0030
 41
0.0030
  0
VERTEX
  8
SST
 10
2.4665
 20
1.2300
 30
 0.0
 42
1.0
  0
VERTEX
  8
SST
 10
2.4695
 20
1.2300
 30
 0.0
 42
1.0
  0
SEQEND
  8
SST
  0
POLYLINE
  8
SST
 66
      1
 70
1
 40
0.0030
 41
0.0030
  0
VERTEX
  8
SST
 10
2.5265
 20
1.2300
 30
 0.0
 42
1.0
  0
VERTEX
  8
SST
 10
2.5295
 20
1.2300
 30
 0.0
 42
1.0
  0
SEQEND
  8
SST
  0
POLYLINE
  8
SST
 66
      1
 70
1
 40
0.0030
 41
0.0030
  0
VERTEX
  8
SST
 10
2.5265
 20
1.1800
 30
 0.0
 42
1.0
  0
VERTEX
  8
SST
 10
2.5295
 20
1.1800
 30
 0.0
 42
1.0
  0
SEQEND
  8
SST
  0
POLYLINE
  8
SST
 66
      1
 70
1
 40
0.0060
 41
0.0060
  0
VERTEX
  8
SST
 10
1.0480
 20
0.8730
 30
 0.0
  0
VERTEX
  8
SST
 10
1.0480
 20
0.9230
 30
 0.0
  0
VERTEX
  8
SST
 10
0.9530
 20
0.9230
 30
 0.0
  0
VERTEX
  8
SST
 10
0.9530
 20
0.8730
 30
 0.0
  0
VERTEX
  8
SST
 10
1.0480
 20
0.8730
 30
 0.0
  0
SEQEND
  8
SST
  0
POLYLINE
  8
SST
 66
      1
 70
1
 40
0.0030
 41
0.0030
  0
VERTEX
  8
SST
 10
1.0465
 20
0.8730
 30
 0.0
 42
1.0
  0
VERTEX
  8
SST
 10
1.0495
 20
0.8730
 30
 0.0
 42
1.0
  0
SEQEND
  8
SST
  0
POLYLINE
  8
SST
 66
      1
 70
1
 40
0.0030
 41
0.0030
  0
VERTEX
  8
SST
 10
1.0465
 20
0.9230
 30
 0.0
 42
1.0
  0
VERTEX
  8
SST
 10
1.0495
 20
0.9230
 30
 0.0
 42
1.0
  0
SEQEND
  8
SST
  0
POLYLINE
  8
SST
 66
      1
 70
1
 40
0.0030
 41
0.0030
  0
VERTEX
  8
SST
 10
0.9515
 20
0.9230
 30
 0.0
 42
1.0
  0
VERTEX
  8
SST
 10
0.9545
 20
0.9230
 30
 0.0
 42
1.0
  0
SEQEND
  8
SST
  0
POLYLINE
  8
SST
 66
      1
 70
1
 40
0.0030
 41
0.0030
  0
VERTEX
  8
SST
 10
0.9515
 20
0.8730
 30
 0.0
 42
1.0
  0
VERTEX
  8
SST
 10
0.9545
 20
0.8730
 30
 0.0
 42
1.0
  0
SEQEND
  8
SST
  0
POLYLINE
  8
SST
 66
      1
 70
1
 40
0.0030
 41
0.0030
  0
VERTEX
  8
SST
 10
1.0465
 20
0.8730
 30
 0.0
 42
1.0
  0
VERTEX
  8
SST
 10
1.0495
 20
0.8730
 30
 0.0
 42
1.0
  0
SEQEND
  8
SST
  0
POLYLINE
  8
SST
 66
      1
 70
0
 40
0.0080
 41
0.0080
  0
VERTEX
  8
SST
 10
0.6180
 20
1.5880
 30
 0.0
 42
0.9999999999999999
  0
VERTEX
  8
SST
 10
0.3100
 20
1.5880
 30
 0.0
  0
SEQEND
  8
SST
  0
POLYLINE
  8
SST
 66
      1
 70
1
 40
0.0040
 41
0.0040
  0
VERTEX
  8
SST
 10
0.6160
 20
1.5880
 30
 0.0
 42
1.0
  0
VERTEX
  8
SST
 10
0.6200
 20
1.5880
 30
 0.0
 42
1.0
  0
SEQEND
  8
SST
  0
POLYLINE
  8
SST
 66
      1
 70
1
 40
0.0040
 41
0.0040
  0
VERTEX
  8
SST
 10
0.3080
 20
1.5880
 30
 0.0
 42
1.0
  0
VERTEX
  8
SST
 10
0.3120
 20
1.5880
 30
 0.0
 42
1.0
  0
SEQEND
  8
SST
  0
POLYLINE
  8
SST
 66
      1
 70
0
 40
0.0080
 41
0.0080
  0
VERTEX
  8
SST
 10
0.3100
 20
1.5880
 30
 0.0
 42
0.9999999999999999
  0
VERTEX
  8
SST
 10
0.6180
 20
1.5880
 30
 0.0
  0
SEQEND
  8
SST
  0
POLYLINE
  8
SST
 66
      1
 70
1
 40
0.0040
 41
0.0040
  0
VERTEX
  8
SST
 10
0.3080
 20
1.5880
 30
 0.0
 42
1.0
  0
VERTEX
  8
SST
 10
0.3120
 20
1.5880
 30
 0.0
 42
1.0
  0
SEQEND
  8
SST
  0
POLYLINE
  8
SST
 66
      1
 70
1
 40
0.0040
 41
0.0040
  0
VERTEX
  8
SST
 10
0.6160
 20
1.5880
 30
 0.0
 42
1.0
  0
VERTEX
  8
SST
 10
0.6200
 20
1.5880
 30
 0.0
 42
1.0
  0
SEQEND
  8
SST
  0
POLYLINE
  8
SST
 66
      1
 70
1
 40
0.0060
 41
0.0060
  0
VERTEX
  8
SST
 10
1.0060
 20
0.8810
 30
 0.0
  0
VERTEX
  8
SST
 10
1.0060
 20
0.9160
 30
 0.0
  0
VERTEX
  8
SST
 10
0.9960
 20
0.9160
 30
 0.0
  0
VERTEX
  8
SST
 10
0.9960
 20
0.8810
 30
 0.0
  0
VERTEX
  8
SST
 10
1.0060
 20
0.8810
 30
 0.0
  0
SEQEND
  8
SST
  0
POLYLINE
  8
SST
 66
      1
 70
1
 40
0.0030
 41
0.0030
  0
VERTEX
  8
SST
 10
1.0045
 20
0.8810
 30
 0.0
 42
1.0
  0
VERTEX
  8
SST
 10
1.0075
 20
0.8810
 30
 0.0
 42
1.0
  0
SEQEND
  8
SST
  0
POLYLINE
  8
SST
 66
      1
 70
1
 40
0.0030
 41
0.0030
  0
VERTEX
  8
SST
 10
1.0045
 20
0.9160
 30
 0.0
 42
1.0
  0
VERTEX
  8
SST
 10
1.0075
 20
0.9160
 30
 0.0
 42
1.0
  0
SEQEND
  8
SST
  0
POLYLINE
  8
SST
 66
      1
 70
1
 40
0.0030
 41
0.0030
  0
VERTEX
  8
SST
 10
0.9945
 20
0.9160
 30
 0.0
 42
1.0
  0
VERTEX
  8
SST
 10
0.9975
 20
0.9160
 30
 0.0
 42
1.0
  0
SEQEND
  8
SST
  0
POLYLINE
  8
SST
 66
      1
 70
1
 40
0.0030
 41
0.0030
  0
VERTEX
  8
SST
 10
0.9945
 20
0.8810
 30
 0.0
 42
1.0
  0
VERTEX
  8
SST
 10
0.9975
 20
0.8810
 30
 0.0
 42
1.0
  0
SEQEND
  8
SST
  0
POLYLINE
  8
SST
 66
      1
 70
1
 40
0.0030
 41
0.0030
  0
VERTEX
  8
SST
 10
1.0045
 20
0.8810
 30
 0.0
 42
1.0
  0
VERTEX
  8
SST
 10
1.0075
 20
0.8810
 30
 0.0
 42
1.0
  0
SEQEND
  8
SST
  0
POLYLINE
  8
SST
 66
      1
 70
1
 40
0.0060
 41
0.0060
  0
VERTEX
  8
SST
 10
0.9280
 20
1.5110
 30
 0.0
  0
VERTEX
  8
SST
 10
0.8680
 20
1.5110
 30
 0.0
  0
VERTEX
  8
SST
 10
0.8680
 20
1.5610
 30
 0.0
  0
VERTEX
  8
SST
 10
0.9280
 20
1.5610
 30
 0.0
  0
VERTEX
  8
SST
 10
0.9280
 20
1.5110
 30
 0.0
  0
SEQEND
  8
SST
  0
POLYLINE
  8
SST
 66
      1
 70
1
 40
0.0030
 41
0.0030
  0
VERTEX
  8
SST
 10
0.9265
 20
1.5110
 30
 0.0
 42
1.0
  0
VERTEX
  8
SST
 10
0.9295
 20
1.5110
 30
 0.0
 42
1.0
  0
SEQEND
  8
SST
  0
POLYLINE
  8
SST
 66
      1
 70
1
 40
0.0030
 41
0.0030
  0
VERTEX
  8
SST
 10
0.8665
 20
1.5110
 30
 0.0
 42
1.0
  0
VERTEX
  8
SST
 10
0.8695
 20
1.5110
 30
 0.0
 42
1.0
  0
SEQEND
  8
SST
  0
POLYLINE
  8
SST
 66
      1
 70
1
 40
0.0030
 41
0.0030
  0
VERTEX
  8
SST
 10
0.8665
 20
1.5610
 30
 0.0
 42
1.0
  0
VERTEX
  8
SST
 10
0.8695
 20
1.5610
 30
 0.0
 42
1.0
  0
SEQEND
  8
SST
  0
POLYLINE
  8
SST
 66
      1
 70
1
 40
0.0030
 41
0.0030
  0
VERTEX
  8
SST
 10
0.9265
 20
1.5610
 30
 0.0
 42
1.0
  0
VERTEX
  8
SST
 10
0.9295
 20
1.5610
 30
 0.0
 42
1.0
  0
SEQEND
  8
SST
  0
POLYLINE
  8
SST
 66
      1
 70
1
 40
0.0030
 41
0.0030
  0
VERTEX
  8
SST
 10
0.9265
 20
1.5110
 30
 0.0
 42
1.0
  0
VERTEX
  8
SST
 10
0.9295
 20
1.5110
 30
 0.0
 42
1.0
  0
SEQEND
  8
SST
  0
POLYLINE
  8
SST
 66
      1
 70
1
 40
0.0100
 41
0.0100
  0
VERTEX
  8
SST
 10
0.4230
 20
1.3170
 30
 0.0
  0
VERTEX
  8
SST
 10
0.4230
 20
1.3020
 30
 0.0
  0
VERTEX
  8
SST
 10
0.5430
 20
1.3020
 30
 0.0
  0
VERTEX
  8
SST
 10
0.5430
 20
1.3170
 30
 0.0
  0
VERTEX
  8
SST
 10
0.4230
 20
1.3170
 30
 0.0
  0
SEQEND
  8
SST
  0
POLYLINE
  8
SST
 66
      1
 70
1
 40
0.0050
 41
0.0050
  0
VERTEX
  8
SST
 10
0.4205
 20
1.3170
 30
 0.0
 42
1.0
  0
VERTEX
  8
SST
 10
0.4255
 20
1.3170
 30
 0.0
 42
1.0
  0
SEQEND
  8
SST
  0
POLYLINE
  8
SST
 66
      1
 70
1
 40
0.0050
 41
0.0050
  0
VERTEX
  8
SST
 10
0.4205
 20
1.3020
 30
 0.0
 42
1.0
  0
VERTEX
  8
SST
 10
0.4255
 20
1.3020
 30
 0.0
 42
1.0
  0
SEQEND
  8
SST
  0
POLYLINE
  8
SST
 66
      1
 70
1
 40
0.0050
 41
0.0050
  0
VERTEX
  8
SST
 10
0.5405
 20
1.3020
 30
 0.0
 42
1.0
  0
VERTEX
  8
SST
 10
0.5455
 20
1.3020
 30
 0.0
 42
1.0
  0
SEQEND
  8
SST
  0
POLYLINE
  8
SST
 66
      1
 70
1
 40
0.0050
 41
0.0050
  0
VERTEX
  8
SST
 10
0.5405
 20
1.3170
 30
 0.0
 42
1.0
  0
VERTEX
  8
SST
 10
0.5455
 20
1.3170
 30
 0.0
 42
1.0
  0
SEQEND
  8
SST
  0
POLYLINE
  8
SST
 66
      1
 70
1
 40
0.0050
 41
0.0050
  0
VERTEX
  8
SST
 10
0.4205
 20
1.3170
 30
 0.0
 42
1.0
  0
VERTEX
  8
SST
 10
0.4255
 20
1.3170
 30
 0.0
 42
1.0
  0
SEQEND
  8
SST
  0
POLYLINE
  8
SST
 66
      1
 70
1
 40
0.0080
 41
0.0080
  0
VERTEX
  8
SST
 10
1.7550
 20
0.8260
 30
 0.0
  0
VERTEX
  8
SST
 10
2.1950
 20
0.8260
 30
 0.0
  0
VERTEX
  8
SST
 10
2.1950
 20
1.1060
 30
 0.0
  0
VERTEX
  8
SST
 10
1.7550
 20
1.1060
 30
 0.0
  0
VERTEX
  8
SST
 10
1.7550
 20
0.8260
 30
 0.0
  0
SEQEND
  8
SST
  0
POLYLINE
  8
SST
 66
      1
 70
1
 40
0.0040
 41
0.0040
  0
VERTEX
  8
SST
 10
1.7530
 20
0.8260
 30
 0.0
 42
1.0
  0
VERTEX
  8
SST
 10
1.7570
 20
0.8260
 30
 0.0
 42
1.0
  0
SEQEND
  8
SST
  0
POLYLINE
  8
SST
 66
      1
 70
1
 40
0.0040
 41
0.0040
  0
VERTEX
  8
SST
 10
2.1930
 20
0.8260
 30
 0.0
 42
1.0
  0
VERTEX
  8
SST
 10
2.1970
 20
0.8260
 30
 0.0
 42
1.0
  0
SEQEND
  8
SST
  0
POLYLINE
  8
SST
 66
      1
 70
1
 40
0.0040
 41
0.0040
  0
VERTEX
  8
SST
 10
2.1930
 20
1.1060
 30
 0.0
 42
1.0
  0
VERTEX
  8
SST
 10
2.1970
 20
1.1060
 30
 0.0
 42
1.0
  0
SEQEND
  8
SST
  0
POLYLINE
  8
SST
 66
      1
 70
1
 40
0.0040
 41
0.0040
  0
VERTEX
  8
SST
 10
1.7530
 20
1.1060
 30
 0.0
 42
1.0
  0
VERTEX
  8
SST
 10
1.7570
 20
1.1060
 30
 0.0
 42
1.0
  0
SEQEND
  8
SST
  0
POLYLINE
  8
SST
 66
      1
 70
1
 40
0.0040
 41
0.0040
  0
VERTEX
  8
SST
 10
1.7530
 20
0.8260
 30
 0.0
 42
1.0
  0
VERTEX
  8
SST
 10
1.7570
 20
0.8260
 30
 0.0
 42
1.0
  0
SEQEND
  8
SST
  0
POLYLINE
  8
SST
 66
      1
 70
1
 40
0.0100
 41
0.0100
  0
VERTEX
  8
SST
 10
0.4230
 20
1.0970
 30
 0.0
  0
VERTEX
  8
SST
 10
0.4230
 20
1.0820
 30
 0.0
  0
VERTEX
  8
SST
 10
0.5430
 20
1.0820
 30
 0.0
  0
VERTEX
  8
SST
 10
0.5430
 20
1.0970
 30
 0.0
  0
VERTEX
  8
SST
 10
0.4230
 20
1.0970
 30
 0.0
  0
SEQEND
  8
SST
  0
POLYLINE
  8
SST
 66
      1
 70
1
 40
0.0050
 41
0.0050
  0
VERTEX
  8
SST
 10
0.4205
 20
1.0970
 30
 0.0
 42
1.0
  0
VERTEX
  8
SST
 10
0.4255
 20
1.0970
 30
 0.0
 42
1.0
  0
SEQEND
  8
SST
  0
POLYLINE
  8
SST
 66
      1
 70
1
 40
0.0050
 41
0.0050
  0
VERTEX
  8
SST
 10
0.4205
 20
1.0820
 30
 0.0
 42
1.0
  0
VERTEX
  8
SST
 10
0.4255
 20
1.0820
 30
 0.0
 42
1.0
  0
SEQEND
  8
SST
  0
POLYLINE
  8
SST
 66
      1
 70
1
 40
0.0050
 41
0.0050
  0
VERTEX
  8
SST
 10
0.5405
 20
1.0820
 30
 0.0
 42
1.0
  0
VERTEX
  8
SST
 10
0.5455
 20
1.0820
 30
 0.0
 42
1.0
  0
SEQEND
  8
SST
  0
POLYLINE
  8
SST
 66
      1
 70
1
 40
0.0050
 41
0.0050
  0
VERTEX
  8
SST
 10
0.5405
 20
1.0970
 30
 0.0
 42
1.0
  0
VERTEX
  8
SST
 10
0.5455
 20
1.0970
 30
 0.0
 42
1.0
  0
SEQEND
  8
SST
  0
POLYLINE
  8
SST
 66
      1
 70
1
 40
0.0050
 41
0.0050
  0
VERTEX
  8
SST
 10
0.4205
 20
1.0970
 30
 0.0
 42
1.0
  0
VERTEX
  8
SST
 10
0.4255
 20
1.0970
 30
 0.0
 42
1.0
  0
SEQEND
  8
SST
  0
POLYLINE
  8
SST
 66
      1
 70
1
 40
0.0060
 41
0.0060
  0
VERTEX
  8
SST
 10
0.9530
 20
0.8340
 30
 0.0
  0
VERTEX
  8
SST
 10
0.9530
 20
0.7840
 30
 0.0
  0
VERTEX
  8
SST
 10
1.0480
 20
0.7840
 30
 0.0
  0
VERTEX
  8
SST
 10
1.0480
 20
0.8340
 30
 0.0
  0
VERTEX
  8
SST
 10
0.9530
 20
0.8340
 30
 0.0
  0
SEQEND
  8
SST
  0
POLYLINE
  8
SST
 66
      1
 70
1
 40
0.0030
 41
0.0030
  0
VERTEX
  8
SST
 10
0.9515
 20
0.8340
 30
 0.0
 42
1.0
  0
VERTEX
  8
SST
 10
0.9545
 20
0.8340
 30
 0.0
 42
1.0
  0
SEQEND
  8
SST
  0
POLYLINE
  8
SST
 66
      1
 70
1
 40
0.0030
 41
0.0030
  0
VERTEX
  8
SST
 10
0.9515
 20
0.7840
 30
 0.0
 42
1.0
  0
VERTEX
  8
SST
 10
0.9545
 20
0.7840
 30
 0.0
 42
1.0
  0
SEQEND
  8
SST
  0
POLYLINE
  8
SST
 66
      1
 70
1
 40
0.0030
 41
0.0030
  0
VERTEX
  8
SST
 10
1.0465
 20
0.7840
 30
 0.0
 42
1.0
  0
VERTEX
  8
SST
 10
1.0495
 20
0.7840
 30
 0.0
 42
1.0
  0
SEQEND
  8
SST
  0
POLYLINE
  8
SST
 66
      1
 70
1
 40
0.0030
 41
0.0030
  0
VERTEX
  8
SST
 10
1.0465
 20
0.8340
 30
 0.0
 42
1.0
  0
VERTEX
  8
SST
 10
1.0495
 20
0.8340
 30
 0.0
 42
1.0
  0
SEQEND
  8
SST
  0
POLYLINE
  8
SST
 66
      1
 70
1
 40
0.0030
 41
0.0030
  0
VERTEX
  8
SST
 10
0.9515
 20
0.8340
 30
 0.0
 42
1.0
  0
VERTEX
  8
SST
 10
0.9545
 20
0.8340
 30
 0.0
 42
1.0
  0
SEQEND
  8
SST
  0
POLYLINE
  8
SST
 66
      1
 70
1
 40
0.0060
 41
0.0060
  0
VERTEX
  8
SST
 10
0.9950
 20
0.8260
 30
 0.0
  0
VERTEX
  8
SST
 10
0.9950
 20
0.7910
 30
 0.0
  0
VERTEX
  8
SST
 10
1.0050
 20
0.7910
 30
 0.0
  0
VERTEX
  8
SST
 10
1.0050
 20
0.8260
 30
 0.0
  0
VERTEX
  8
SST
 10
0.9950
 20
0.8260
 30
 0.0
  0
SEQEND
  8
SST
  0
POLYLINE
  8
SST
 66
      1
 70
1
 40
0.0030
 41
0.0030
  0
VERTEX
  8
SST
 10
0.9935
 20
0.8260
 30
 0.0
 42
1.0
  0
VERTEX
  8
SST
 10
0.9965
 20
0.8260
 30
 0.0
 42
1.0
  0
SEQEND
  8
SST
  0
POLYLINE
  8
SST
 66
      1
 70
1
 40
0.0030
 41
0.0030
  0
VERTEX
  8
SST
 10
0.9935
 20
0.7910
 30
 0.0
 42
1.0
  0
VERTEX
  8
SST
 10
0.9965
 20
0.7910
 30
 0.0
 42
1.0
  0
SEQEND
  8
SST
  0
POLYLINE
  8
SST
 66
      1
 70
1
 40
0.0030
 41
0.0030
  0
VERTEX
  8
SST
 10
1.0035
 20
0.7910
 30
 0.0
 42
1.0
  0
VERTEX
  8
SST
 10
1.0065
 20
0.7910
 30
 0.0
 42
1.0
  0
SEQEND
  8
SST
  0
POLYLINE
  8
SST
 66
      1
 70
1
 40
0.0030
 41
0.0030
  0
VERTEX
  8
SST
 10
1.0035
 20
0.8260
 30
 0.0
 42
1.0
  0
VERTEX
  8
SST
 10
1.0065
 20
0.8260
 30
 0.0
 42
1.0
  0
SEQEND
  8
SST
  0
POLYLINE
  8
SST
 66
      1
 70
1
 40
0.0030
 41
0.0030
  0
VERTEX
  8
SST
 10
0.9935
 20
0.8260
 30
 0.0
 42
1.0
  0
VERTEX
  8
SST
 10
0.9965
 20
0.8260
 30
 0.0
 42
1.0
  0
SEQEND
  8
SST
  0
POLYLINE
  8
SST
 66
      1
 70
1
 40
0.0060
 41
0.0060
  0
VERTEX
  8
SST
 10
1.2720
 20
0.6170
 30
 0.0
  0
VERTEX
  8
SST
 10
1.2220
 20
0.6170
 30
 0.0
  0
VERTEX
  8
SST
 10
1.2220
 20
0.5220
 30
 0.0
  0
VERTEX
  8
SST
 10
1.2720
 20
0.5220
 30
 0.0
  0
VERTEX
  8
SST
 10
1.2720
 20
0.6170
 30
 0.0
  0
SEQEND
  8
SST
  0
POLYLINE
  8
SST
 66
      1
 70
1
 40
0.0030
 41
0.0030
  0
VERTEX
  8
SST
 10
1.2705
 20
0.6170
 30
 0.0
 42
1.0
  0
VERTEX
  8
SST
 10
1.2735
 20
0.6170
 30
 0.0
 42
1.0
  0
SEQEND
  8
SST
  0
POLYLINE
  8
SST
 66
      1
 70
1
 40
0.0030
 41
0.0030
  0
VERTEX
  8
SST
 10
1.2205
 20
0.6170
 30
 0.0
 42
1.0
  0
VERTEX
  8
SST
 10
1.2235
 20
0.6170
 30
 0.0
 42
1.0
  0
SEQEND
  8
SST
  0
POLYLINE
  8
SST
 66
      1
 70
1
 40
0.0030
 41
0.0030
  0
VERTEX
  8
SST
 10
1.2205
 20
0.5220
 30
 0.0
 42
1.0
  0
VERTEX
  8
SST
 10
1.2235
 20
0.5220
 30
 0.0
 42
1.0
  0
SEQEND
  8
SST
  0
POLYLINE
  8
SST
 66
      1
 70
1
 40
0.0030
 41
0.0030
  0
VERTEX
  8
SST
 10
1.2705
 20
0.5220
 30
 0.0
 42
1.0
  0
VERTEX
  8
SST
 10
1.2735
 20
0.5220
 30
 0.0
 42
1.0
  0
SEQEND
  8
SST
  0
POLYLINE
  8
SST
 66
      1
 70
1
 40
0.0030
 41
0.0030
  0
VERTEX
  8
SST
 10
1.2705
 20
0.6170
 30
 0.0
 42
1.0
  0
VERTEX
  8
SST
 10
1.2735
 20
0.6170
 30
 0.0
 42
1.0
  0
SEQEND
  8
SST
  0
POLYLINE
  8
SST
 66
      1
 70
0
 40
0.0060
 41
0.0060
  0
VERTEX
  8
SST
 10
0.9640
 20
0.7150
 30
 0.0
  0
VERTEX
  8
SST
 10
0.9690
 20
0.7150
 30
 0.0
  0
VERTEX
  8
SST
 10
0.9690
 20
0.7450
 30
 0.0
  0
VERTEX
  8
SST
 10
0.9950
 20
0.7450
 30
 0.0
  0
SEQEND
  8
SST
  0
POLYLINE
  8
SST
 66
      1
 70
1
 40
0.0030
 41
0.0030
  0
VERTEX
  8
SST
 10
0.9625
 20
0.7150
 30
 0.0
 42
1.0
  0
VERTEX
  8
SST
 10
0.9655
 20
0.7150
 30
 0.0
 42
1.0
  0
SEQEND
  8
SST
  0
POLYLINE
  8
SST
 66
      1
 70
1
 40
0.0030
 41
0.0030
  0
VERTEX
  8
SST
 10
0.9675
 20
0.7150
 30
 0.0
 42
1.0
  0
VERTEX
  8
SST
 10
0.9705
 20
0.7150
 30
 0.0
 42
1.0
  0
SEQEND
  8
SST
  0
POLYLINE
  8
SST
 66
      1
 70
1
 40
0.0030
 41
0.0030
  0
VERTEX
  8
SST
 10
0.9675
 20
0.7450
 30
 0.0
 42
1.0
  0
VERTEX
  8
SST
 10
0.9705
 20
0.7450
 30
 0.0
 42
1.0
  0
SEQEND
  8
SST
  0
POLYLINE
  8
SST
 66
      1
 70
1
 40
0.0030
 41
0.0030
  0
VERTEX
  8
SST
 10
0.9935
 20
0.7450
 30
 0.0
 42
1.0
  0
VERTEX
  8
SST
 10
0.9965
 20
0.7450
 30
 0.0
 42
1.0
  0
SEQEND
  8
SST
  0
POLYLINE
  8
SST
 66
      1
 70
0
 40
0.0060
 41
0.0060
  0
VERTEX
  8
SST
 10
1.0630
 20
0.7450
 30
 0.0
  0
VERTEX
  8
SST
 10
1.0890
 20
0.7450
 30
 0.0
  0
VERTEX
  8
SST
 10
1.0890
 20
0.7150
 30
 0.0
  0
SEQEND
  8
SST
  0
POLYLINE
  8
SST
 66
      1
 70
1
 40
0.0030
 41
0.0030
  0
VERTEX
  8
SST
 10
1.0615
 20
0.7450
 30
 0.0
 42
1.0
  0
VERTEX
  8
SST
 10
1.0645
 20
0.7450
 30
 0.0
 42
1.0
  0
SEQEND
  8
SST
  0
POLYLINE
  8
SST
 66
      1
 70
1
 40
0.0030
 41
0.0030
  0
VERTEX
  8
SST
 10
1.0875
 20
0.7450
 30
 0.0
 42
1.0
  0
VERTEX
  8
SST
 10
1.0905
 20
0.7450
 30
 0.0
 42
1.0
  0
SEQEND
  8
SST
  0
POLYLINE
  8
SST
 66
      1
 70
1
 40
0.0030
 41
0.0030
  0
VERTEX
  8
SST
 10
1.0875
 20
0.7150
 30
 0.0
 42
1.0
  0
VERTEX
  8
SST
 10
1.0905
 20
0.7150
 30
 0.0
 42
1.0
  0
SEQEND
  8
SST
  0
POLYLINE
  8
SST
 66
      1
 70
0
 40
0.0060
 41
0.0060
  0
VERTEX
  8
SST
 10
1.4440
 20
0.5370
 30
 0.0
  0
VERTEX
  8
SST
 10
1.4440
 20
0.5110
 30
 0.0
  0
VERTEX
  8
SST
 10
1.4140
 20
0.5110
 30
 0.0
  0
SEQEND
  8
SST
  0
POLYLINE
  8
SST
 66
      1
 70
1
 40
0.0030
 41
0.0030
  0
VERTEX
  8
SST
 10
1.4425
 20
0.5370
 30
 0.0
 42
1.0
  0
VERTEX
  8
SST
 10
1.4455
 20
0.5370
 30
 0.0
 42
1.0
  0
SEQEND
  8
SST
  0
POLYLINE
  8
SST
 66
      1
 70
1
 40
0.0030
 41
0.0030
  0
VERTEX
  8
SST
 10
1.4425
 20
0.5110
 30
 0.0
 42
1.0
  0
VERTEX
  8
SST
 10
1.4455
 20
0.5110
 30
 0.0
 42
1.0
  0
SEQEND
  8
SST
  0
POLYLINE
  8
SST
 66
      1
 70
1
 40
0.0030
 41
0.0030
  0
VERTEX
  8
SST
 10
1.4125
 20
0.5110
 30
 0.0
 42
1.0
  0
VERTEX
  8
SST
 10
1.4155
 20
0.5110
 30
 0.0
 42
1.0
  0
SEQEND
  8
SST
  0
POLYLINE
  8
SST
 66
      1
 70
1
 40
0.0060
 41
0.0060
  0
VERTEX
  8
SST
 10
1.0350
 20
0.6170
 30
 0.0
  0
VERTEX
  8
SST
 10
0.9850
 20
0.6170
 30
 0.0
  0
VERTEX
  8
SST
 10
0.9850
 20
0.5220
 30
 0.0
  0
VERTEX
  8
SST
 10
1.0350
 20
0.5220
 30
 0.0
  0
VERTEX
  8
SST
 10
1.0350
 20
0.6170
 30
 0.0
  0
SEQEND
  8
SST
  0
POLYLINE
  8
SST
 66
      1
 70
1
 40
0.0030
 41
0.0030
  0
VERTEX
  8
SST
 10
1.0335
 20
0.6170
 30
 0.0
 42
1.0
  0
VERTEX
  8
SST
 10
1.0365
 20
0.6170
 30
 0.0
 42
1.0
  0
SEQEND
  8
SST
  0
POLYLINE
  8
SST
 66
      1
 70
1
 40
0.0030
 41
0.0030
  0
VERTEX
  8
SST
 10
0.9835
 20
0.6170
 30
 0.0
 42
1.0
  0
VERTEX
  8
SST
 10
0.9865
 20
0.6170
 30
 0.0
 42
1.0
  0
SEQEND
  8
SST
  0
POLYLINE
  8
SST
 66
      1
 70
1
 40
0.0030
 41
0.0030
  0
VERTEX
  8
SST
 10
0.9835
 20
0.5220
 30
 0.0
 42
1.0
  0
VERTEX
  8
SST
 10
0.9865
 20
0.5220
 30
 0.0
 42
1.0
  0
SEQEND
  8
SST
  0
POLYLINE
  8
SST
 66
      1
 70
1
 40
0.0030
 41
0.0030
  0
VERTEX
  8
SST
 10
1.0335
 20
0.5220
 30
 0.0
 42
1.0
  0
VERTEX
  8
SST
 10
1.0365
 20
0.5220
 30
 0.0
 42
1.0
  0
SEQEND
  8
SST
  0
POLYLINE
  8
SST
 66
      1
 70
1
 40
0.0030
 41
0.0030
  0
VERTEX
  8
SST
 10
1.0335
 20
0.6170
 30
 0.0
 42
1.0
  0
VERTEX
  8
SST
 10
1.0365
 20
0.6170
 30
 0.0
 42
1.0
  0
SEQEND
  8
SST
  0
POLYLINE
  8
SST
 66
      1
 70
1
 40
0.0060
 41
0.0060
  0
VERTEX
  8
SST
 10
1.0270
 20
0.5740
 30
 0.0
  0
VERTEX
  8
SST
 10
0.9920
 20
0.5740
 30
 0.0
  0
VERTEX
  8
SST
 10
0.9920
 20
0.5640
 30
 0.0
  0
VERTEX
  8
SST
 10
1.0270
 20
0.5640
 30
 0.0
  0
VERTEX
  8
SST
 10
1.0270
 20
0.5740
 30
 0.0
  0
SEQEND
  8
SST
  0
POLYLINE
  8
SST
 66
      1
 70
1
 40
0.0030
 41
0.0030
  0
VERTEX
  8
SST
 10
1.0255
 20
0.5740
 30
 0.0
 42
1.0
  0
VERTEX
  8
SST
 10
1.0285
 20
0.5740
 30
 0.0
 42
1.0
  0
SEQEND
  8
SST
  0
POLYLINE
  8
SST
 66
      1
 70
1
 40
0.0030
 41
0.0030
  0
VERTEX
  8
SST
 10
0.9905
 20
0.5740
 30
 0.0
 42
1.0
  0
VERTEX
  8
SST
 10
0.9935
 20
0.5740
 30
 0.0
 42
1.0
  0
SEQEND
  8
SST
  0
POLYLINE
  8
SST
 66
      1
 70
1
 40
0.0030
 41
0.0030
  0
VERTEX
  8
SST
 10
0.9905
 20
0.5640
 30
 0.0
 42
1.0
  0
VERTEX
  8
SST
 10
0.9935
 20
0.5640
 30
 0.0
 42
1.0
  0
SEQEND
  8
SST
  0
POLYLINE
  8
SST
 66
      1
 70
1
 40
0.0030
 41
0.0030
  0
VERTEX
  8
SST
 10
1.0255
 20
0.5640
 30
 0.0
 42
1.0
  0
VERTEX
  8
SST
 10
1.0285
 20
0.5640
 30
 0.0
 42
1.0
  0
SEQEND
  8
SST
  0
POLYLINE
  8
SST
 66
      1
 70
1
 40
0.0030
 41
0.0030
  0
VERTEX
  8
SST
 10
1.0255
 20
0.5740
 30
 0.0
 42
1.0
  0
VERTEX
  8
SST
 10
1.0285
 20
0.5740
 30
 0.0
 42
1.0
  0
SEQEND
  8
SST
  0
POLYLINE
  8
SST
 66
      1
 70
1
 40
0.0060
 41
0.0060
  0
VERTEX
  8
SST
 10
1.5710
 20
1.2170
 30
 0.0
  0
VERTEX
  8
SST
 10
1.5160
 20
1.2170
 30
 0.0
  0
VERTEX
  8
SST
 10
1.5160
 20
1.1120
 30
 0.0
  0
VERTEX
  8
SST
 10
1.5710
 20
1.1120
 30
 0.0
  0
VERTEX
  8
SST
 10
1.5710
 20
1.2170
 30
 0.0
  0
SEQEND
  8
SST
  0
POLYLINE
  8
SST
 66
      1
 70
1
 40
0.0030
 41
0.0030
  0
VERTEX
  8
SST
 10
1.5695
 20
1.2170
 30
 0.0
 42
1.0
  0
VERTEX
  8
SST
 10
1.5725
 20
1.2170
 30
 0.0
 42
1.0
  0
SEQEND
  8
SST
  0
POLYLINE
  8
SST
 66
      1
 70
1
 40
0.0030
 41
0.0030
  0
VERTEX
  8
SST
 10
1.5145
 20
1.2170
 30
 0.0
 42
1.0
  0
VERTEX
  8
SST
 10
1.5175
 20
1.2170
 30
 0.0
 42
1.0
  0
SEQEND
  8
SST
  0
POLYLINE
  8
SST
 66
      1
 70
1
 40
0.0030
 41
0.0030
  0
VERTEX
  8
SST
 10
1.5145
 20
1.1120
 30
 0.0
 42
1.0
  0
VERTEX
  8
SST
 10
1.5175
 20
1.1120
 30
 0.0
 42
1.0
  0
SEQEND
  8
SST
  0
POLYLINE
  8
SST
 66
      1
 70
1
 40
0.0030
 41
0.0030
  0
VERTEX
  8
SST
 10
1.5695
 20
1.1120
 30
 0.0
 42
1.0
  0
VERTEX
  8
SST
 10
1.5725
 20
1.1120
 30
 0.0
 42
1.0
  0
SEQEND
  8
SST
  0
POLYLINE
  8
SST
 66
      1
 70
1
 40
0.0030
 41
0.0030
  0
VERTEX
  8
SST
 10
1.5695
 20
1.2170
 30
 0.0
 42
1.0
  0
VERTEX
  8
SST
 10
1.5725
 20
1.2170
 30
 0.0
 42
1.0
  0
SEQEND
  8
SST
  0
POLYLINE
  8
SST
 66
      1
 70
1
 40
0.0060
 41
0.0060
  0
VERTEX
  8
SST
 10
2.4430
 20
1.1800
 30
 0.0
  0
VERTEX
  8
SST
 10
2.3830
 20
1.1800
 30
 0.0
  0
VERTEX
  8
SST
 10
2.3830
 20
1.2300
 30
 0.0
  0
VERTEX
  8
SST
 10
2.4430
 20
1.2300
 30
 0.0
  0
VERTEX
  8
SST
 10
2.4430
 20
1.1800
 30
 0.0
  0
SEQEND
  8
SST
  0
POLYLINE
  8
SST
 66
      1
 70
1
 40
0.0030
 41
0.0030
  0
VERTEX
  8
SST
 10
2.4415
 20
1.1800
 30
 0.0
 42
1.0
  0
VERTEX
  8
SST
 10
2.4445
 20
1.1800
 30
 0.0
 42
1.0
  0
SEQEND
  8
SST
  0
POLYLINE
  8
SST
 66
      1
 70
1
 40
0.0030
 41
0.0030
  0
VERTEX
  8
SST
 10
2.3815
 20
1.1800
 30
 0.0
 42
1.0
  0
VERTEX
  8
SST
 10
2.3845
 20
1.1800
 30
 0.0
 42
1.0
  0
SEQEND
  8
SST
  0
POLYLINE
  8
SST
 66
      1
 70
1
 40
0.0030
 41
0.0030
  0
VERTEX
  8
SST
 10
2.3815
 20
1.2300
 30
 0.0
 42
1.0
  0
VERTEX
  8
SST
 10
2.3845
 20
1.2300
 30
 0.0
 42
1.0
  0
SEQEND
  8
SST
  0
POLYLINE
  8
SST
 66
      1
 70
1
 40
0.0030
 41
0.0030
  0
VERTEX
  8
SST
 10
2.4415
 20
1.2300
 30
 0.0
 42
1.0
  0
VERTEX
  8
SST
 10
2.4445
 20
1.2300
 30
 0.0
 42
1.0
  0
SEQEND
  8
SST
  0
POLYLINE
  8
SST
 66
      1
 70
1
 40
0.0030
 41
0.0030
  0
VERTEX
  8
SST
 10
2.4415
 20
1.1800
 30
 0.0
 42
1.0
  0
VERTEX
  8
SST
 10
2.4445
 20
1.1800
 30
 0.0
 42
1.0
  0
SEQEND
  8
SST
  0
POLYLINE
  8
SST
 66
      1
 70
0
 40
0.0060
 41
0.0060
  0
VERTEX
  8
SST
 10
1.5230
 20
1.1690
 30
 0.0
  0
VERTEX
  8
SST
 10
1.5680
 20
1.1690
 30
 0.0
  0
SEQEND
  8
SST
  0
POLYLINE
  8
SST
 66
      1
 70
1
 40
0.0030
 41
0.0030
  0
VERTEX
  8
SST
 10
1.5215
 20
1.1690
 30
 0.0
 42
1.0
  0
VERTEX
  8
SST
 10
1.5245
 20
1.1690
 30
 0.0
 42
1.0
  0
SEQEND
  8
SST
  0
POLYLINE
  8
SST
 66
      1
 70
1
 40
0.0030
 41
0.0030
  0
VERTEX
  8
SST
 10
1.5665
 20
1.1690
 30
 0.0
 42
1.0
  0
VERTEX
  8
SST
 10
1.5695
 20
1.1690
 30
 0.0
 42
1.0
  0
SEQEND
  8
SST
  0
POLYLINE
  8
SST
 66
      1
 70
1
 40
0.0080
 41
0.0080
  0
VERTEX
  8
SST
 10
1.9850
 20
1.1280
 30
 0.0
  0
VERTEX
  8
SST
 10
1.9850
 20
1.1680
 30
 0.0
  0
VERTEX
  8
SST
 10
1.9460
 20
1.1680
 30
 0.0
  0
VERTEX
  8
SST
 10
1.9460
 20
1.1280
 30
 0.0
  0
VERTEX
  8
SST
 10
1.9850
 20
1.1280
 30
 0.0
  0
SEQEND
  8
SST
  0
POLYLINE
  8
SST
 66
      1
 70
1
 40
0.0040
 41
0.0040
  0
VERTEX
  8
SST
 10
1.9830
 20
1.1280
 30
 0.0
 42
1.0
  0
VERTEX
  8
SST
 10
1.9870
 20
1.1280
 30
 0.0
 42
1.0
  0
SEQEND
  8
SST
  0
POLYLINE
  8
SST
 66
      1
 70
1
 40
0.0040
 41
0.0040
  0
VERTEX
  8
SST
 10
1.9830
 20
1.1680
 30
 0.0
 42
1.0
  0
VERTEX
  8
SST
 10
1.9870
 20
1.1680
 30
 0.0
 42
1.0
  0
SEQEND
  8
SST
  0
POLYLINE
  8
SST
 66
      1
 70
1
 40
0.0040
 41
0.0040
  0
VERTEX
  8
SST
 10
1.9440
 20
1.1680
 30
 0.0
 42
1.0
  0
VERTEX
  8
SST
 10
1.9480
 20
1.1680
 30
 0.0
 42
1.0
  0
SEQEND
  8
SST
  0
POLYLINE
  8
SST
 66
      1
 70
1
 40
0.0040
 41
0.0040
  0
VERTEX
  8
SST
 10
1.9440
 20
1.1280
 30
 0.0
 42
1.0
  0
VERTEX
  8
SST
 10
1.9480
 20
1.1280
 30
 0.0
 42
1.0
  0
SEQEND
  8
SST
  0
POLYLINE
  8
SST
 66
      1
 70
1
 40
0.0040
 41
0.0040
  0
VERTEX
  8
SST
 10
1.9830
 20
1.1280
 30
 0.0
 42
1.0
  0
VERTEX
  8
SST
 10
1.9870
 20
1.1280
 30
 0.0
 42
1.0
  0
SEQEND
  8
SST
  0
POLYLINE
  8
SST
 66
      1
 70
1
 40
0.0080
 41
0.0080
  0
VERTEX
  8
SST
 10
1.8200
 20
1.1190
 30
 0.0
  0
VERTEX
  8
SST
 10
1.8200
 20
1.2440
 30
 0.0
  0
VERTEX
  8
SST
 10
1.9940
 20
1.2440
 30
 0.0
  0
VERTEX
  8
SST
 10
1.9940
 20
1.1190
 30
 0.0
  0
VERTEX
  8
SST
 10
1.8200
 20
1.1190
 30
 0.0
  0
SEQEND
  8
SST
  0
POLYLINE
  8
SST
 66
      1
 70
1
 40
0.0040
 41
0.0040
  0
VERTEX
  8
SST
 10
1.8180
 20
1.1190
 30
 0.0
 42
1.0
  0
VERTEX
  8
SST
 10
1.8220
 20
1.1190
 30
 0.0
 42
1.0
  0
SEQEND
  8
SST
  0
POLYLINE
  8
SST
 66
      1
 70
1
 40
0.0040
 41
0.0040
  0
VERTEX
  8
SST
 10
1.8180
 20
1.2440
 30
 0.0
 42
1.0
  0
VERTEX
  8
SST
 10
1.8220
 20
1.2440
 30
 0.0
 42
1.0
  0
SEQEND
  8
SST
  0
POLYLINE
  8
SST
 66
      1
 70
1
 40
0.0040
 41
0.0040
  0
VERTEX
  8
SST
 10
1.9920
 20
1.2440
 30
 0.0
 42
1.0
  0
VERTEX
  8
SST
 10
1.9960
 20
1.2440
 30
 0.0
 42
1.0
  0
SEQEND
  8
SST
  0
POLYLINE
  8
SST
 66
      1
 70
1
 40
0.0040
 41
0.0040
  0
VERTEX
  8
SST
 10
1.9920
 20
1.1190
 30
 0.0
 42
1.0
  0
VERTEX
  8
SST
 10
1.9960
 20
1.1190
 30
 0.0
 42
1.0
  0
SEQEND
  8
SST
  0
POLYLINE
  8
SST
 66
      1
 70
1
 40
0.0040
 41
0.0040
  0
VERTEX
  8
SST
 10
1.8180
 20
1.1190
 30
 0.0
 42
1.0
  0
VERTEX
  8
SST
 10
1.8220
 20
1.1190
 30
 0.0
 42
1.0
  0
SEQEND
  8
SST
  0
POLYLINE
  8
SST
 66
      1
 70
1
 40
0.0080
 41
0.0080
  0
VERTEX
  8
SST
 10
1.1130
 20
1.2830
 30
 0.0
  0
VERTEX
  8
SST
 10
0.6730
 20
1.2830
 30
 0.0
  0
VERTEX
  8
SST
 10
0.6730
 20
1.0030
 30
 0.0
  0
VERTEX
  8
SST
 10
1.1130
 20
1.0030
 30
 0.0
  0
VERTEX
  8
SST
 10
1.1130
 20
1.2830
 30
 0.0
  0
SEQEND
  8
SST
  0
POLYLINE
  8
SST
 66
      1
 70
1
 40
0.0040
 41
0.0040
  0
VERTEX
  8
SST
 10
1.1110
 20
1.2830
 30
 0.0
 42
1.0
  0
VERTEX
  8
SST
 10
1.1150
 20
1.2830
 30
 0.0
 42
1.0
  0
SEQEND
  8
SST
  0
POLYLINE
  8
SST
 66
      1
 70
1
 40
0.0040
 41
0.0040
  0
VERTEX
  8
SST
 10
0.6710
 20
1.2830
 30
 0.0
 42
1.0
  0
VERTEX
  8
SST
 10
0.6750
 20
1.2830
 30
 0.0
 42
1.0
  0
SEQEND
  8
SST
  0
POLYLINE
  8
SST
 66
      1
 70
1
 40
0.0040
 41
0.0040
  0
VERTEX
  8
SST
 10
0.6710
 20
1.0030
 30
 0.0
 42
1.0
  0
VERTEX
  8
SST
 10
0.6750
 20
1.0030
 30
 0.0
 42
1.0
  0
SEQEND
  8
SST
  0
POLYLINE
  8
SST
 66
      1
 70
1
 40
0.0040
 41
0.0040
  0
VERTEX
  8
SST
 10
1.1110
 20
1.0030
 30
 0.0
 42
1.0
  0
VERTEX
  8
SST
 10
1.1150
 20
1.0030
 30
 0.0
 42
1.0
  0
SEQEND
  8
SST
  0
POLYLINE
  8
SST
 66
      1
 70
1
 40
0.0040
 41
0.0040
  0
VERTEX
  8
SST
 10
1.1110
 20
1.2830
 30
 0.0
 42
1.0
  0
VERTEX
  8
SST
 10
1.1150
 20
1.2830
 30
 0.0
 42
1.0
  0
SEQEND
  8
SST
  0
POLYLINE
  8
SST
 66
      1
 70
1
 40
0.0060
 41
0.0060
  0
VERTEX
  8
SST
 10
2.1480
 20
1.1270
 30
 0.0
  0
VERTEX
  8
SST
 10
2.1480
 20
1.2220
 30
 0.0
  0
VERTEX
  8
SST
 10
2.1980
 20
1.2220
 30
 0.0
  0
VERTEX
  8
SST
 10
2.1980
 20
1.1270
 30
 0.0
  0
VERTEX
  8
SST
 10
2.1480
 20
1.1270
 30
 0.0
  0
SEQEND
  8
SST
  0
POLYLINE
  8
SST
 66
      1
 70
1
 40
0.0030
 41
0.0030
  0
VERTEX
  8
SST
 10
2.1465
 20
1.1270
 30
 0.0
 42
1.0
  0
VERTEX
  8
SST
 10
2.1495
 20
1.1270
 30
 0.0
 42
1.0
  0
SEQEND
  8
SST
  0
POLYLINE
  8
SST
 66
      1
 70
1
 40
0.0030
 41
0.0030
  0
VERTEX
  8
SST
 10
2.1465
 20
1.2220
 30
 0.0
 42
1.0
  0
VERTEX
  8
SST
 10
2.1495
 20
1.2220
 30
 0.0
 42
1.0
  0
SEQEND
  8
SST
  0
POLYLINE
  8
SST
 66
      1
 70
1
 40
0.0030
 41
0.0030
  0
VERTEX
  8
SST
 10
2.1965
 20
1.2220
 30
 0.0
 42
1.0
  0
VERTEX
  8
SST
 10
2.1995
 20
1.2220
 30
 0.0
 42
1.0
  0
SEQEND
  8
SST
  0
POLYLINE
  8
SST
 66
      1
 70
1
 40
0.0030
 41
0.0030
  0
VERTEX
  8
SST
 10
2.1965
 20
1.1270
 30
 0.0
 42
1.0
  0
VERTEX
  8
SST
 10
2.1995
 20
1.1270
 30
 0.0
 42
1.0
  0
SEQEND
  8
SST
  0
POLYLINE
  8
SST
 66
      1
 70
1
 40
0.0030
 41
0.0030
  0
VERTEX
  8
SST
 10
2.1465
 20
1.1270
 30
 0.0
 42
1.0
  0
VERTEX
  8
SST
 10
2.1495
 20
1.1270
 30
 0.0
 42
1.0
  0
SEQEND
  8
SST
  0
POLYLINE
  8
SST
 66
      1
 70
1
 40
0.0060
 41
0.0060
  0
VERTEX
  8
SST
 10
2.1550
 20
1.1690
 30
 0.0
  0
VERTEX
  8
SST
 10
2.1900
 20
1.1690
 30
 0.0
  0
VERTEX
  8
SST
 10
2.1900
 20
1.1790
 30
 0.0
  0
VERTEX
  8
SST
 10
2.1550
 20
1.1790
 30
 0.0
  0
VERTEX
  8
SST
 10
2.1550
 20
1.1690
 30
 0.0
  0
SEQEND
  8
SST
  0
POLYLINE
  8
SST
 66
      1
 70
1
 40
0.0030
 41
0.0030
  0
VERTEX
  8
SST
 10
2.1535
 20
1.1690
 30
 0.0
 42
1.0
  0
VERTEX
  8
SST
 10
2.1565
 20
1.1690
 30
 0.0
 42
1.0
  0
SEQEND
  8
SST
  0
POLYLINE
  8
SST
 66
      1
 70
1
 40
0.0030
 41
0.0030
  0
VERTEX
  8
SST
 10
2.1885
 20
1.1690
 30
 0.0
 42
1.0
  0
VERTEX
  8
SST
 10
2.1915
 20
1.1690
 30
 0.0
 42
1.0
  0
SEQEND
  8
SST
  0
POLYLINE
  8
SST
 66
      1
 70
1
 40
0.0030
 41
0.0030
  0
VERTEX
  8
SST
 10
2.1885
 20
1.1790
 30
 0.0
 42
1.0
  0
VERTEX
  8
SST
 10
2.1915
 20
1.1790
 30
 0.0
 42
1.0
  0
SEQEND
  8
SST
  0
POLYLINE
  8
SST
 66
      1
 70
1
 40
0.0030
 41
0.0030
  0
VERTEX
  8
SST
 10
2.1535
 20
1.1790
 30
 0.0
 42
1.0
  0
VERTEX
  8
SST
 10
2.1565
 20
1.1790
 30
 0.0
 42
1.0
  0
SEQEND
  8
SST
  0
POLYLINE
  8
SST
 66
      1
 70
1
 40
0.0030
 41
0.0030
  0
VERTEX
  8
SST
 10
2.1535
 20
1.1690
 30
 0.0
 42
1.0
  0
VERTEX
  8
SST
 10
2.1565
 20
1.1690
 30
 0.0
 42
1.0
  0
SEQEND
  8
SST
  0
POLYLINE
  8
SST
 66
      1
 70
1
 40
0.0060
 41
0.0060
  0
VERTEX
  8
SST
 10
0.7950
 20
0.9010
 30
 0.0
  0
VERTEX
  8
SST
 10
0.7950
 20
0.8410
 30
 0.0
  0
VERTEX
  8
SST
 10
0.7450
 20
0.8410
 30
 0.0
  0
VERTEX
  8
SST
 10
0.7450
 20
0.9010
 30
 0.0
  0
VERTEX
  8
SST
 10
0.7950
 20
0.9010
 30
 0.0
  0
SEQEND
  8
SST
  0
POLYLINE
  8
SST
 66
      1
 70
1
 40
0.0030
 41
0.0030
  0
VERTEX
  8
SST
 10
0.7935
 20
0.9010
 30
 0.0
 42
1.0
  0
VERTEX
  8
SST
 10
0.7965
 20
0.9010
 30
 0.0
 42
1.0
  0
SEQEND
  8
SST
  0
POLYLINE
  8
SST
 66
      1
 70
1
 40
0.0030
 41
0.0030
  0
VERTEX
  8
SST
 10
0.7935
 20
0.8410
 30
 0.0
 42
1.0
  0
VERTEX
  8
SST
 10
0.7965
 20
0.8410
 30
 0.0
 42
1.0
  0
SEQEND
  8
SST
  0
POLYLINE
  8
SST
 66
      1
 70
1
 40
0.0030
 41
0.0030
  0
VERTEX
  8
SST
 10
0.7435
 20
0.8410
 30
 0.0
 42
1.0
  0
VERTEX
  8
SST
 10
0.7465
 20
0.8410
 30
 0.0
 42
1.0
  0
SEQEND
  8
SST
  0
POLYLINE
  8
SST
 66
      1
 70
1
 40
0.0030
 41
0.0030
  0
VERTEX
  8
SST
 10
0.7435
 20
0.9010
 30
 0.0
 42
1.0
  0
VERTEX
  8
SST
 10
0.7465
 20
0.9010
 30
 0.0
 42
1.0
  0
SEQEND
  8
SST
  0
POLYLINE
  8
SST
 66
      1
 70
1
 40
0.0030
 41
0.0030
  0
VERTEX
  8
SST
 10
0.7935
 20
0.9010
 30
 0.0
 42
1.0
  0
VERTEX
  8
SST
 10
0.7965
 20
0.9010
 30
 0.0
 42
1.0
  0
SEQEND
  8
SST
  0
POLYLINE
  8
SST
 66
      1
 70
1
 40
0.0060
 41
0.0060
  0
VERTEX
  8
SST
 10
1.1620
 20
0.6170
 30
 0.0
  0
VERTEX
  8
SST
 10
1.1120
 20
0.6170
 30
 0.0
  0
VERTEX
  8
SST
 10
1.1120
 20
0.5220
 30
 0.0
  0
VERTEX
  8
SST
 10
1.1620
 20
0.5220
 30
 0.0
  0
VERTEX
  8
SST
 10
1.1620
 20
0.6170
 30
 0.0
  0
SEQEND
  8
SST
  0
POLYLINE
  8
SST
 66
      1
 70
1
 40
0.0030
 41
0.0030
  0
VERTEX
  8
SST
 10
1.1605
 20
0.6170
 30
 0.0
 42
1.0
  0
VERTEX
  8
SST
 10
1.1635
 20
0.6170
 30
 0.0
 42
1.0
  0
SEQEND
  8
SST
  0
POLYLINE
  8
SST
 66
      1
 70
1
 40
0.0030
 41
0.0030
  0
VERTEX
  8
SST
 10
1.1105
 20
0.6170
 30
 0.0
 42
1.0
  0
VERTEX
  8
SST
 10
1.1135
 20
0.6170
 30
 0.0
 42
1.0
  0
SEQEND
  8
SST
  0
POLYLINE
  8
SST
 66
      1
 70
1
 40
0.0030
 41
0.0030
  0
VERTEX
  8
SST
 10
1.1105
 20
0.5220
 30
 0.0
 42
1.0
  0
VERTEX
  8
SST
 10
1.1135
 20
0.5220
 30
 0.0
 42
1.0
  0
SEQEND
  8
SST
  0
POLYLINE
  8
SST
 66
      1
 70
1
 40
0.0030
 41
0.0030
  0
VERTEX
  8
SST
 10
1.1605
 20
0.5220
 30
 0.0
 42
1.0
  0
VERTEX
  8
SST
 10
1.1635
 20
0.5220
 30
 0.0
 42
1.0
  0
SEQEND
  8
SST
  0
POLYLINE
  8
SST
 66
      1
 70
1
 40
0.0030
 41
0.0030
  0
VERTEX
  8
SST
 10
1.1605
 20
0.6170
 30
 0.0
 42
1.0
  0
VERTEX
  8
SST
 10
1.1635
 20
0.6170
 30
 0.0
 42
1.0
  0
SEQEND
  8
SST
  0
POLYLINE
  8
SST
 66
      1
 70
1
 40
0.0060
 41
0.0060
  0
VERTEX
  8
SST
 10
1.1540
 20
0.5740
 30
 0.0
  0
VERTEX
  8
SST
 10
1.1190
 20
0.5740
 30
 0.0
  0
VERTEX
  8
SST
 10
1.1190
 20
0.5640
 30
 0.0
  0
VERTEX
  8
SST
 10
1.1540
 20
0.5640
 30
 0.0
  0
VERTEX
  8
SST
 10
1.1540
 20
0.5740
 30
 0.0
  0
SEQEND
  8
SST
  0
POLYLINE
  8
SST
 66
      1
 70
1
 40
0.0030
 41
0.0030
  0
VERTEX
  8
SST
 10
1.1525
 20
0.5740
 30
 0.0
 42
1.0
  0
VERTEX
  8
SST
 10
1.1555
 20
0.5740
 30
 0.0
 42
1.0
  0
SEQEND
  8
SST
  0
POLYLINE
  8
SST
 66
      1
 70
1
 40
0.0030
 41
0.0030
  0
VERTEX
  8
SST
 10
1.1175
 20
0.5740
 30
 0.0
 42
1.0
  0
VERTEX
  8
SST
 10
1.1205
 20
0.5740
 30
 0.0
 42
1.0
  0
SEQEND
  8
SST
  0
POLYLINE
  8
SST
 66
      1
 70
1
 40
0.0030
 41
0.0030
  0
VERTEX
  8
SST
 10
1.1175
 20
0.5640
 30
 0.0
 42
1.0
  0
VERTEX
  8
SST
 10
1.1205
 20
0.5640
 30
 0.0
 42
1.0
  0
SEQEND
  8
SST
  0
POLYLINE
  8
SST
 66
      1
 70
1
 40
0.0030
 41
0.0030
  0
VERTEX
  8
SST
 10
1.1525
 20
0.5640
 30
 0.0
 42
1.0
  0
VERTEX
  8
SST
 10
1.1555
 20
0.5640
 30
 0.0
 42
1.0
  0
SEQEND
  8
SST
  0
POLYLINE
  8
SST
 66
      1
 70
1
 40
0.0030
 41
0.0030
  0
VERTEX
  8
SST
 10
1.1525
 20
0.5740
 30
 0.0
 42
1.0
  0
VERTEX
  8
SST
 10
1.1555
 20
0.5740
 30
 0.0
 42
1.0
  0
SEQEND
  8
SST
  0
POLYLINE
  8
SST
 66
      1
 70
1
 40
0.0100
 41
0.0100
  0
VERTEX
  8
SST
 10
2.3580
 20
1.0030
 30
 0.0
  0
VERTEX
  8
SST
 10
2.3580
 20
0.9880
 30
 0.0
  0
VERTEX
  8
SST
 10
2.4780
 20
0.9880
 30
 0.0
  0
VERTEX
  8
SST
 10
2.4780
 20
1.0030
 30
 0.0
  0
VERTEX
  8
SST
 10
2.3580
 20
1.0030
 30
 0.0
  0
SEQEND
  8
SST
  0
POLYLINE
  8
SST
 66
      1
 70
1
 40
0.0050
 41
0.0050
  0
VERTEX
  8
SST
 10
2.3555
 20
1.0030
 30
 0.0
 42
1.0
  0
VERTEX
  8
SST
 10
2.3605
 20
1.0030
 30
 0.0
 42
1.0
  0
SEQEND
  8
SST
  0
POLYLINE
  8
SST
 66
      1
 70
1
 40
0.0050
 41
0.0050
  0
VERTEX
  8
SST
 10
2.3555
 20
0.9880
 30
 0.0
 42
1.0
  0
VERTEX
  8
SST
 10
2.3605
 20
0.9880
 30
 0.0
 42
1.0
  0
SEQEND
  8
SST
  0
POLYLINE
  8
SST
 66
      1
 70
1
 40
0.0050
 41
0.0050
  0
VERTEX
  8
SST
 10
2.4755
 20
0.9880
 30
 0.0
 42
1.0
  0
VERTEX
  8
SST
 10
2.4805
 20
0.9880
 30
 0.0
 42
1.0
  0
SEQEND
  8
SST
  0
POLYLINE
  8
SST
 66
      1
 70
1
 40
0.0050
 41
0.0050
  0
VERTEX
  8
SST
 10
2.4755
 20
1.0030
 30
 0.0
 42
1.0
  0
VERTEX
  8
SST
 10
2.4805
 20
1.0030
 30
 0.0
 42
1.0
  0
SEQEND
  8
SST
  0
POLYLINE
  8
SST
 66
      1
 70
1
 40
0.0050
 41
0.0050
  0
VERTEX
  8
SST
 10
2.3555
 20
1.0030
 30
 0.0
 42
1.0
  0
VERTEX
  8
SST
 10
2.3605
 20
1.0030
 30
 0.0
 42
1.0
  0
SEQEND
  8
SST
  0
POLYLINE
  8
SST
 66
      1
 70
1
 40
0.0100
 41
0.0100
  0
VERTEX
  8
SST
 10
2.3570
 20
0.6820
 30
 0.0
  0
VERTEX
  8
SST
 10
2.3570
 20
0.6670
 30
 0.0
  0
VERTEX
  8
SST
 10
2.4770
 20
0.6670
 30
 0.0
  0
VERTEX
  8
SST
 10
2.4770
 20
0.6820
 30
 0.0
  0
VERTEX
  8
SST
 10
2.3570
 20
0.6820
 30
 0.0
  0
SEQEND
  8
SST
  0
POLYLINE
  8
SST
 66
      1
 70
1
 40
0.0050
 41
0.0050
  0
VERTEX
  8
SST
 10
2.3545
 20
0.6820
 30
 0.0
 42
1.0
  0
VERTEX
  8
SST
 10
2.3595
 20
0.6820
 30
 0.0
 42
1.0
  0
SEQEND
  8
SST
  0
POLYLINE
  8
SST
 66
      1
 70
1
 40
0.0050
 41
0.0050
  0
VERTEX
  8
SST
 10
2.3545
 20
0.6670
 30
 0.0
 42
1.0
  0
VERTEX
  8
SST
 10
2.3595
 20
0.6670
 30
 0.0
 42
1.0
  0
SEQEND
  8
SST
  0
POLYLINE
  8
SST
 66
      1
 70
1
 40
0.0050
 41
0.0050
  0
VERTEX
  8
SST
 10
2.4745
 20
0.6670
 30
 0.0
 42
1.0
  0
VERTEX
  8
SST
 10
2.4795
 20
0.6670
 30
 0.0
 42
1.0
  0
SEQEND
  8
SST
  0
POLYLINE
  8
SST
 66
      1
 70
1
 40
0.0050
 41
0.0050
  0
VERTEX
  8
SST
 10
2.4745
 20
0.6820
 30
 0.0
 42
1.0
  0
VERTEX
  8
SST
 10
2.4795
 20
0.6820
 30
 0.0
 42
1.0
  0
SEQEND
  8
SST
  0
POLYLINE
  8
SST
 66
      1
 70
1
 40
0.0050
 41
0.0050
  0
VERTEX
  8
SST
 10
2.3545
 20
0.6820
 30
 0.0
 42
1.0
  0
VERTEX
  8
SST
 10
2.3595
 20
0.6820
 30
 0.0
 42
1.0
  0
SEQEND
  8
SST
  0
POLYLINE
  8
SST
 66
      1
 70
1
 40
0.0100
 41
0.0100
  0
VERTEX
  8
SST
 10
0.4220
 20
0.6550
 30
 0.0
  0
VERTEX
  8
SST
 10
0.4220
 20
0.6400
 30
 0.0
  0
VERTEX
  8
SST
 10
0.5420
 20
0.6400
 30
 0.0
  0
VERTEX
  8
SST
 10
0.5420
 20
0.6550
 30
 0.0
  0
VERTEX
  8
SST
 10
0.4220
 20
0.6550
 30
 0.0
  0
SEQEND
  8
SST
  0
POLYLINE
  8
SST
 66
      1
 70
1
 40
0.0050
 41
0.0050
  0
VERTEX
  8
SST
 10
0.4195
 20
0.6550
 30
 0.0
 42
1.0
  0
VERTEX
  8
SST
 10
0.4245
 20
0.6550
 30
 0.0
 42
1.0
  0
SEQEND
  8
SST
  0
POLYLINE
  8
SST
 66
      1
 70
1
 40
0.0050
 41
0.0050
  0
VERTEX
  8
SST
 10
0.4195
 20
0.6400
 30
 0.0
 42
1.0
  0
VERTEX
  8
SST
 10
0.4245
 20
0.6400
 30
 0.0
 42
1.0
  0
SEQEND
  8
SST
  0
POLYLINE
  8
SST
 66
      1
 70
1
 40
0.0050
 41
0.0050
  0
VERTEX
  8
SST
 10
0.5395
 20
0.6400
 30
 0.0
 42
1.0
  0
VERTEX
  8
SST
 10
0.5445
 20
0.6400
 30
 0.0
 42
1.0
  0
SEQEND
  8
SST
  0
POLYLINE
  8
SST
 66
      1
 70
1
 40
0.0050
 41
0.0050
  0
VERTEX
  8
SST
 10
0.5395
 20
0.6550
 30
 0.0
 42
1.0
  0
VERTEX
  8
SST
 10
0.5445
 20
0.6550
 30
 0.0
 42
1.0
  0
SEQEND
  8
SST
  0
POLYLINE
  8
SST
 66
      1
 70
1
 40
0.0050
 41
0.0050
  0
VERTEX
  8
SST
 10
0.4195
 20
0.6550
 30
 0.0
 42
1.0
  0
VERTEX
  8
SST
 10
0.4245
 20
0.6550
 30
 0.0
 42
1.0
  0
SEQEND
  8
SST
  0
POLYLINE
  8
SST
 66
      1
 70
1
 40
0.0100
 41
0.0100
  0
VERTEX
  8
SST
 10
0.4220
 20
0.8770
 30
 0.0
  0
VERTEX
  8
SST
 10
0.4220
 20
0.8620
 30
 0.0
  0
VERTEX
  8
SST
 10
0.5420
 20
0.8620
 30
 0.0
  0
VERTEX
  8
SST
 10
0.5420
 20
0.8770
 30
 0.0
  0
VERTEX
  8
SST
 10
0.4220
 20
0.8770
 30
 0.0
  0
SEQEND
  8
SST
  0
POLYLINE
  8
SST
 66
      1
 70
1
 40
0.0050
 41
0.0050
  0
VERTEX
  8
SST
 10
0.4195
 20
0.8770
 30
 0.0
 42
1.0
  0
VERTEX
  8
SST
 10
0.4245
 20
0.8770
 30
 0.0
 42
1.0
  0
SEQEND
  8
SST
  0
POLYLINE
  8
SST
 66
      1
 70
1
 40
0.0050
 41
0.0050
  0
VERTEX
  8
SST
 10
0.4195
 20
0.8620
 30
 0.0
 42
1.0
  0
VERTEX
  8
SST
 10
0.4245
 20
0.8620
 30
 0.0
 42
1.0
  0
SEQEND
  8
SST
  0
POLYLINE
  8
SST
 66
      1
 70
1
 40
0.0050
 41
0.0050
  0
VERTEX
  8
SST
 10
0.5395
 20
0.8620
 30
 0.0
 42
1.0
  0
VERTEX
  8
SST
 10
0.5445
 20
0.8620
 30
 0.0
 42
1.0
  0
SEQEND
  8
SST
  0
POLYLINE
  8
SST
 66
      1
 70
1
 40
0.0050
 41
0.0050
  0
VERTEX
  8
SST
 10
0.5395
 20
0.8770
 30
 0.0
 42
1.0
  0
VERTEX
  8
SST
 10
0.5445
 20
0.8770
 30
 0.0
 42
1.0
  0
SEQEND
  8
SST
  0
POLYLINE
  8
SST
 66
      1
 70
1
 40
0.0050
 41
0.0050
  0
VERTEX
  8
SST
 10
0.4195
 20
0.8770
 30
 0.0
 42
1.0
  0
VERTEX
  8
SST
 10
0.4245
 20
0.8770
 30
 0.0
 42
1.0
  0
SEQEND
  8
SST
  0
POLYLINE
  8
SST
 66
      1
 70
1
 40
0.0060
 41
0.0060
  0
VERTEX
  8
SST
 10
2.1380
 20
1.2230
 30
 0.0
  0
VERTEX
  8
SST
 10
2.0880
 20
1.2230
 30
 0.0
  0
VERTEX
  8
SST
 10
2.0880
 20
1.1280
 30
 0.0
  0
VERTEX
  8
SST
 10
2.1380
 20
1.1280
 30
 0.0
  0
VERTEX
  8
SST
 10
2.1380
 20
1.2230
 30
 0.0
  0
SEQEND
  8
SST
  0
POLYLINE
  8
SST
 66
      1
 70
1
 40
0.0030
 41
0.0030
  0
VERTEX
  8
SST
 10
2.1365
 20
1.2230
 30
 0.0
 42
1.0
  0
VERTEX
  8
SST
 10
2.1395
 20
1.2230
 30
 0.0
 42
1.0
  0
SEQEND
  8
SST
  0
POLYLINE
  8
SST
 66
      1
 70
1
 40
0.0030
 41
0.0030
  0
VERTEX
  8
SST
 10
2.0865
 20
1.2230
 30
 0.0
 42
1.0
  0
VERTEX
  8
SST
 10
2.0895
 20
1.2230
 30
 0.0
 42
1.0
  0
SEQEND
  8
SST
  0
POLYLINE
  8
SST
 66
      1
 70
1
 40
0.0030
 41
0.0030
  0
VERTEX
  8
SST
 10
2.0865
 20
1.1280
 30
 0.0
 42
1.0
  0
VERTEX
  8
SST
 10
2.0895
 20
1.1280
 30
 0.0
 42
1.0
  0
SEQEND
  8
SST
  0
POLYLINE
  8
SST
 66
      1
 70
1
 40
0.0030
 41
0.0030
  0
VERTEX
  8
SST
 10
2.1365
 20
1.1280
 30
 0.0
 42
1.0
  0
VERTEX
  8
SST
 10
2.1395
 20
1.1280
 30
 0.0
 42
1.0
  0
SEQEND
  8
SST
  0
POLYLINE
  8
SST
 66
      1
 70
1
 40
0.0030
 41
0.0030
  0
VERTEX
  8
SST
 10
2.1365
 20
1.2230
 30
 0.0
 42
1.0
  0
VERTEX
  8
SST
 10
2.1395
 20
1.2230
 30
 0.0
 42
1.0
  0
SEQEND
  8
SST
  0
POLYLINE
  8
SST
 66
      1
 70
1
 40
0.0060
 41
0.0060
  0
VERTEX
  8
SST
 10
2.1300
 20
1.1800
 30
 0.0
  0
VERTEX
  8
SST
 10
2.0950
 20
1.1800
 30
 0.0
  0
VERTEX
  8
SST
 10
2.0950
 20
1.1700
 30
 0.0
  0
VERTEX
  8
SST
 10
2.1300
 20
1.1700
 30
 0.0
  0
VERTEX
  8
SST
 10
2.1300
 20
1.1800
 30
 0.0
  0
SEQEND
  8
SST
  0
POLYLINE
  8
SST
 66
      1
 70
1
 40
0.0030
 41
0.0030
  0
VERTEX
  8
SST
 10
2.1285
 20
1.1800
 30
 0.0
 42
1.0
  0
VERTEX
  8
SST
 10
2.1315
 20
1.1800
 30
 0.0
 42
1.0
  0
SEQEND
  8
SST
  0
POLYLINE
  8
SST
 66
      1
 70
1
 40
0.0030
 41
0.0030
  0
VERTEX
  8
SST
 10
2.0935
 20
1.1800
 30
 0.0
 42
1.0
  0
VERTEX
  8
SST
 10
2.0965
 20
1.1800
 30
 0.0
 42
1.0
  0
SEQEND
  8
SST
  0
POLYLINE
  8
SST
 66
      1
 70
1
 40
0.0030
 41
0.0030
  0
VERTEX
  8
SST
 10
2.0935
 20
1.1700
 30
 0.0
 42
1.0
  0
VERTEX
  8
SST
 10
2.0965
 20
1.1700
 30
 0.0
 42
1.0
  0
SEQEND
  8
SST
  0
POLYLINE
  8
SST
 66
      1
 70
1
 40
0.0030
 41
0.0030
  0
VERTEX
  8
SST
 10
2.1285
 20
1.1700
 30
 0.0
 42
1.0
  0
VERTEX
  8
SST
 10
2.1315
 20
1.1700
 30
 0.0
 42
1.0
  0
SEQEND
  8
SST
  0
POLYLINE
  8
SST
 66
      1
 70
1
 40
0.0030
 41
0.0030
  0
VERTEX
  8
SST
 10
2.1285
 20
1.1800
 30
 0.0
 42
1.0
  0
VERTEX
  8
SST
 10
2.1315
 20
1.1800
 30
 0.0
 42
1.0
  0
SEQEND
  8
SST
  0
POLYLINE
  8
SST
 66
      1
 70
1
 40
0.0060
 41
0.0060
  0
VERTEX
  8
SST
 10
2.1430
 20
0.8120
 30
 0.0
  0
VERTEX
  8
SST
 10
2.0930
 20
0.8120
 30
 0.0
  0
VERTEX
  8
SST
 10
2.0930
 20
0.7170
 30
 0.0
  0
VERTEX
  8
SST
 10
2.1430
 20
0.7170
 30
 0.0
  0
VERTEX
  8
SST
 10
2.1430
 20
0.8120
 30
 0.0
  0
SEQEND
  8
SST
  0
POLYLINE
  8
SST
 66
      1
 70
1
 40
0.0030
 41
0.0030
  0
VERTEX
  8
SST
 10
2.1415
 20
0.8120
 30
 0.0
 42
1.0
  0
VERTEX
  8
SST
 10
2.1445
 20
0.8120
 30
 0.0
 42
1.0
  0
SEQEND
  8
SST
  0
POLYLINE
  8
SST
 66
      1
 70
1
 40
0.0030
 41
0.0030
  0
VERTEX
  8
SST
 10
2.0915
 20
0.8120
 30
 0.0
 42
1.0
  0
VERTEX
  8
SST
 10
2.0945
 20
0.8120
 30
 0.0
 42
1.0
  0
SEQEND
  8
SST
  0
POLYLINE
  8
SST
 66
      1
 70
1
 40
0.0030
 41
0.0030
  0
VERTEX
  8
SST
 10
2.0915
 20
0.7170
 30
 0.0
 42
1.0
  0
VERTEX
  8
SST
 10
2.0945
 20
0.7170
 30
 0.0
 42
1.0
  0
SEQEND
  8
SST
  0
POLYLINE
  8
SST
 66
      1
 70
1
 40
0.0030
 41
0.0030
  0
VERTEX
  8
SST
 10
2.1415
 20
0.7170
 30
 0.0
 42
1.0
  0
VERTEX
  8
SST
 10
2.1445
 20
0.7170
 30
 0.0
 42
1.0
  0
SEQEND
  8
SST
  0
POLYLINE
  8
SST
 66
      1
 70
1
 40
0.0030
 41
0.0030
  0
VERTEX
  8
SST
 10
2.1415
 20
0.8120
 30
 0.0
 42
1.0
  0
VERTEX
  8
SST
 10
2.1445
 20
0.8120
 30
 0.0
 42
1.0
  0
SEQEND
  8
SST
  0
POLYLINE
  8
SST
 66
      1
 70
1
 40
0.0060
 41
0.0060
  0
VERTEX
  8
SST
 10
2.1350
 20
0.7690
 30
 0.0
  0
VERTEX
  8
SST
 10
2.1000
 20
0.7690
 30
 0.0
  0
VERTEX
  8
SST
 10
2.1000
 20
0.7590
 30
 0.0
  0
VERTEX
  8
SST
 10
2.1350
 20
0.7590
 30
 0.0
  0
VERTEX
  8
SST
 10
2.1350
 20
0.7690
 30
 0.0
  0
SEQEND
  8
SST
  0
POLYLINE
  8
SST
 66
      1
 70
1
 40
0.0030
 41
0.0030
  0
VERTEX
  8
SST
 10
2.1335
 20
0.7690
 30
 0.0
 42
1.0
  0
VERTEX
  8
SST
 10
2.1365
 20
0.7690
 30
 0.0
 42
1.0
  0
SEQEND
  8
SST
  0
POLYLINE
  8
SST
 66
      1
 70
1
 40
0.0030
 41
0.0030
  0
VERTEX
  8
SST
 10
2.0985
 20
0.7690
 30
 0.0
 42
1.0
  0
VERTEX
  8
SST
 10
2.1015
 20
0.7690
 30
 0.0
 42
1.0
  0
SEQEND
  8
SST
  0
POLYLINE
  8
SST
 66
      1
 70
1
 40
0.0030
 41
0.0030
  0
VERTEX
  8
SST
 10
2.0985
 20
0.7590
 30
 0.0
 42
1.0
  0
VERTEX
  8
SST
 10
2.1015
 20
0.7590
 30
 0.0
 42
1.0
  0
SEQEND
  8
SST
  0
POLYLINE
  8
SST
 66
      1
 70
1
 40
0.0030
 41
0.0030
  0
VERTEX
  8
SST
 10
2.1335
 20
0.7590
 30
 0.0
 42
1.0
  0
VERTEX
  8
SST
 10
2.1365
 20
0.7590
 30
 0.0
 42
1.0
  0
SEQEND
  8
SST
  0
POLYLINE
  8
SST
 66
      1
 70
1
 40
0.0030
 41
0.0030
  0
VERTEX
  8
SST
 10
2.1335
 20
0.7690
 30
 0.0
 42
1.0
  0
VERTEX
  8
SST
 10
2.1365
 20
0.7690
 30
 0.0
 42
1.0
  0
SEQEND
  8
SST
  0
POLYLINE
  8
SST
 66
      1
 70
0
 40
0.0080
 41
0.0080
  0
VERTEX
  8
SST
 10
2.2920
 20
1.3730
 30
 0.0
  0
VERTEX
  8
SST
 10
1.9060
 20
1.3730
 30
 0.0
  0
SEQEND
  8
SST
  0
POLYLINE
  8
SST
 66
      1
 70
1
 40
0.0040
 41
0.0040
  0
VERTEX
  8
SST
 10
2.2900
 20
1.3730
 30
 0.0
 42
1.0
  0
VERTEX
  8
SST
 10
2.2940
 20
1.3730
 30
 0.0
 42
1.0
  0
SEQEND
  8
SST
  0
POLYLINE
  8
SST
 66
      1
 70
1
 40
0.0040
 41
0.0040
  0
VERTEX
  8
SST
 10
1.9040
 20
1.3730
 30
 0.0
 42
1.0
  0
VERTEX
  8
SST
 10
1.9080
 20
1.3730
 30
 0.0
 42
1.0
  0
SEQEND
  8
SST
  0
POLYLINE
  8
SST
 66
      1
 70
0
 40
0.0080
 41
0.0080
  0
VERTEX
  8
SST
 10
2.0200
 20
1.4910
 30
 0.0
  0
VERTEX
  8
SST
 10
1.9690
 20
1.4910
 30
 0.0
  0
SEQEND
  8
SST
  0
POLYLINE
  8
SST
 66
      1
 70
1
 40
0.0040
 41
0.0040
  0
VERTEX
  8
SST
 10
2.0180
 20
1.4910
 30
 0.0
 42
1.0
  0
VERTEX
  8
SST
 10
2.0220
 20
1.4910
 30
 0.0
 42
1.0
  0
SEQEND
  8
SST
  0
POLYLINE
  8
SST
 66
      1
 70
1
 40
0.0040
 41
0.0040
  0
VERTEX
  8
SST
 10
1.9670
 20
1.4910
 30
 0.0
 42
1.0
  0
VERTEX
  8
SST
 10
1.9710
 20
1.4910
 30
 0.0
 42
1.0
  0
SEQEND
  8
SST
  0
POLYLINE
  8
SST
 66
      1
 70
0
 40
0.0080
 41
0.0080
  0
VERTEX
  8
SST
 10
1.9960
 20
1.4660
 30
 0.0
  0
VERTEX
  8
SST
 10
1.9960
 20
1.5190
 30
 0.0
  0
SEQEND
  8
SST
  0
POLYLINE
  8
SST
 66
      1
 70
1
 40
0.0040
 41
0.0040
  0
VERTEX
  8
SST
 10
1.9940
 20
1.4660
 30
 0.0
 42
1.0
  0
VERTEX
  8
SST
 10
1.9980
 20
1.4660
 30
 0.0
 42
1.0
  0
SEQEND
  8
SST
  0
POLYLINE
  8
SST
 66
      1
 70
1
 40
0.0040
 41
0.0040
  0
VERTEX
  8
SST
 10
1.9940
 20
1.5190
 30
 0.0
 42
1.0
  0
VERTEX
  8
SST
 10
1.9980
 20
1.5190
 30
 0.0
 42
1.0
  0
SEQEND
  8
SST
  0
POLYLINE
  8
SST
 66
      1
 70
1
 40
0.0080
 41
0.0080
  0
VERTEX
  8
SST
 10
2.0990
 20
1.2300
 30
 0.0
 42
-0.414213562373095
  0
VERTEX
  8
SST
 10
1.8990
 20
1.4300
 30
 0.0
 42
-0.414213562373095
  0
VERTEX
  8
SST
 10
2.0990
 20
1.6300
 30
 0.0
 42
-0.414213562373095
  0
VERTEX
  8
SST
 10
2.2990
 20
1.4300
 30
 0.0
 42
-0.414213562373095
  0
VERTEX
  8
SST
 10
2.0990
 20
1.2300
 30
 0.0
 42
119.8535401416957
  0
SEQEND
  8
SST
  0
POLYLINE
  8
SST
 66
      1
 70
1
 40
0.0040
 41
0.0040
  0
VERTEX
  8
SST
 10
2.0970
 20
1.2300
 30
 0.0
 42
1.0
  0
VERTEX
  8
SST
 10
2.1010
 20
1.2300
 30
 0.0
 42
1.0
  0
SEQEND
  8
SST
  0
POLYLINE
  8
SST
 66
      1
 70
1
 40
0.0040
 41
0.0040
  0
VERTEX
  8
SST
 10
1.8970
 20
1.4300
 30
 0.0
 42
1.0
  0
VERTEX
  8
SST
 10
1.9010
 20
1.4300
 30
 0.0
 42
1.0
  0
SEQEND
  8
SST
  0
POLYLINE
  8
SST
 66
      1
 70
1
 40
0.0040
 41
0.0040
  0
VERTEX
  8
SST
 10
2.0970
 20
1.6300
 30
 0.0
 42
1.0
  0
VERTEX
  8
SST
 10
2.1010
 20
1.6300
 30
 0.0
 42
1.0
  0
SEQEND
  8
SST
  0
POLYLINE
  8
SST
 66
      1
 70
1
 40
0.0040
 41
0.0040
  0
VERTEX
  8
SST
 10
2.2970
 20
1.4300
 30
 0.0
 42
1.0
  0
VERTEX
  8
SST
 10
2.3010
 20
1.4300
 30
 0.0
 42
1.0
  0
SEQEND
  8
SST
  0
POLYLINE
  8
SST
 66
      1
 70
1
 40
0.0040
 41
0.0040
  0
VERTEX
  8
SST
 10
2.0970
 20
1.2300
 30
 0.0
 42
1.0
  0
VERTEX
  8
SST
 10
2.1010
 20
1.2300
 30
 0.0
 42
1.0
  0
SEQEND
  8
SST
  0
POLYLINE
  8
SST
 66
      1
 70
1
 40
0.0060
 41
0.0060
  0
VERTEX
  8
SST
 10
1.5750
 20
0.7650
 30
 0.0
  0
VERTEX
  8
SST
 10
1.5200
 20
0.7650
 30
 0.0
  0
VERTEX
  8
SST
 10
1.5200
 20
0.6600
 30
 0.0
  0
VERTEX
  8
SST
 10
1.5750
 20
0.6600
 30
 0.0
  0
VERTEX
  8
SST
 10
1.5750
 20
0.7650
 30
 0.0
 42
-1.59665735632932
  0
SEQEND
  8
SST
  0
POLYLINE
  8
SST
 66
      1
 70
1
 40
0.0030
 41
0.0030
  0
VERTEX
  8
SST
 10
1.5735
 20
0.7650
 30
 0.0
 42
1.0
  0
VERTEX
  8
SST
 10
1.5765
 20
0.7650
 30
 0.0
 42
1.0
  0
SEQEND
  8
SST
  0
POLYLINE
  8
SST
 66
      1
 70
1
 40
0.0030
 41
0.0030
  0
VERTEX
  8
SST
 10
1.5185
 20
0.7650
 30
 0.0
 42
1.0
  0
VERTEX
  8
SST
 10
1.5215
 20
0.7650
 30
 0.0
 42
1.0
  0
SEQEND
  8
SST
  0
POLYLINE
  8
SST
 66
      1
 70
1
 40
0.0030
 41
0.0030
  0
VERTEX
  8
SST
 10
1.5185
 20
0.6600
 30
 0.0
 42
1.0
  0
VERTEX
  8
SST
 10
1.5215
 20
0.6600
 30
 0.0
 42
1.0
  0
SEQEND
  8
SST
  0
POLYLINE
  8
SST
 66
      1
 70
1
 40
0.0030
 41
0.0030
  0
VERTEX
  8
SST
 10
1.5735
 20
0.6600
 30
 0.0
 42
1.0
  0
VERTEX
  8
SST
 10
1.5765
 20
0.6600
 30
 0.0
 42
1.0
  0
SEQEND
  8
SST
  0
POLYLINE
  8
SST
 66
      1
 70
1
 40
0.0030
 41
0.0030
  0
VERTEX
  8
SST
 10
1.5735
 20
0.7650
 30
 0.0
 42
1.0
  0
VERTEX
  8
SST
 10
1.5765
 20
0.7650
 30
 0.0
 42
1.0
  0
SEQEND
  8
SST
  0
POLYLINE
  8
SST
 66
      1
 70
0
 40
0.0060
 41
0.0060
  0
VERTEX
  8
SST
 10
1.5270
 20
0.7170
 30
 0.0
  0
VERTEX
  8
SST
 10
1.5720
 20
0.7170
 30
 0.0
  0
SEQEND
  8
SST
  0
POLYLINE
  8
SST
 66
      1
 70
1
 40
0.0030
 41
0.0030
  0
VERTEX
  8
SST
 10
1.5255
 20
0.7170
 30
 0.0
 42
1.0
  0
VERTEX
  8
SST
 10
1.5285
 20
0.7170
 30
 0.0
 42
1.0
  0
SEQEND
  8
SST
  0
POLYLINE
  8
SST
 66
      1
 70
1
 40
0.0030
 41
0.0030
  0
VERTEX
  8
SST
 10
1.5705
 20
0.7170
 30
 0.0
 42
1.0
  0
VERTEX
  8
SST
 10
1.5735
 20
0.7170
 30
 0.0
 42
1.0
  0
SEQEND
  8
SST
  0
POLYLINE
  8
SST
 66
      1
 70
1
 40
0.0060
 41
0.0060
  0
VERTEX
  8
SST
 10
1.5500
 20
0.7140
 30
 0.0
  0
VERTEX
  8
SST
 10
1.5270
 20
0.7050
 30
 0.0
  0
VERTEX
  8
SST
 10
1.5720
 20
0.7050
 30
 0.0
  0
VERTEX
  8
SST
 10
1.5500
 20
0.7140
 30
 0.0
  0
SEQEND
  8
SST
  0
POLYLINE
  8
SST
 66
      1
 70
1
 40
0.0030
 41
0.0030
  0
VERTEX
  8
SST
 10
1.5485
 20
0.7140
 30
 0.0
 42
1.0
  0
VERTEX
  8
SST
 10
1.5515
 20
0.7140
 30
 0.0
 42
1.0
  0
SEQEND
  8
SST
  0
POLYLINE
  8
SST
 66
      1
 70
1
 40
0.0030
 41
0.0030
  0
VERTEX
  8
SST
 10
1.5255
 20
0.7050
 30
 0.0
 42
1.0
  0
VERTEX
  8
SST
 10
1.5285
 20
0.7050
 30
 0.0
 42
1.0
  0
SEQEND
  8
SST
  0
POLYLINE
  8
SST
 66
      1
 70
1
 40
0.0030
 41
0.0030
  0
VERTEX
  8
SST
 10
1.5705
 20
0.7050
 30
 0.0
 42
1.0
  0
VERTEX
  8
SST
 10
1.5735
 20
0.7050
 30
 0.0
 42
1.0
  0
SEQEND
  8
SST
  0
POLYLINE
  8
SST
 66
      1
 70
1
 40
0.0030
 41
0.0030
  0
VERTEX
  8
SST
 10
1.5485
 20
0.7140
 30
 0.0
 42
1.0
  0
VERTEX
  8
SST
 10
1.5515
 20
0.7140
 30
 0.0
 42
1.0
  0
SEQEND
  8
SST
  0
POLYLINE
  8
SST
 66
      1
 70
1
 40
0.0060
 41
0.0060
  0
VERTEX
  8
SST
 10
1.7150
 20
0.5680
 30
 0.0
  0
VERTEX
  8
SST
 10
1.6650
 20
0.5680
 30
 0.0
  0
VERTEX
  8
SST
 10
1.6650
 20
0.4730
 30
 0.0
  0
VERTEX
  8
SST
 10
1.7150
 20
0.4730
 30
 0.0
  0
VERTEX
  8
SST
 10
1.7150
 20
0.5680
 30
 0.0
 42
-1.841544626273627
  0
SEQEND
  8
SST
  0
POLYLINE
  8
SST
 66
      1
 70
1
 40
0.0030
 41
0.0030
  0
VERTEX
  8
SST
 10
1.7135
 20
0.5680
 30
 0.0
 42
1.0
  0
VERTEX
  8
SST
 10
1.7165
 20
0.5680
 30
 0.0
 42
1.0
  0
SEQEND
  8
SST
  0
POLYLINE
  8
SST
 66
      1
 70
1
 40
0.0030
 41
0.0030
  0
VERTEX
  8
SST
 10
1.6635
 20
0.5680
 30
 0.0
 42
1.0
  0
VERTEX
  8
SST
 10
1.6665
 20
0.5680
 30
 0.0
 42
1.0
  0
SEQEND
  8
SST
  0
POLYLINE
  8
SST
 66
      1
 70
1
 40
0.0030
 41
0.0030
  0
VERTEX
  8
SST
 10
1.6635
 20
0.4730
 30
 0.0
 42
1.0
  0
VERTEX
  8
SST
 10
1.6665
 20
0.4730
 30
 0.0
 42
1.0
  0
SEQEND
  8
SST
  0
POLYLINE
  8
SST
 66
      1
 70
1
 40
0.0030
 41
0.0030
  0
VERTEX
  8
SST
 10
1.7135
 20
0.4730
 30
 0.0
 42
1.0
  0
VERTEX
  8
SST
 10
1.7165
 20
0.4730
 30
 0.0
 42
1.0
  0
SEQEND
  8
SST
  0
POLYLINE
  8
SST
 66
      1
 70
1
 40
0.0030
 41
0.0030
  0
VERTEX
  8
SST
 10
1.7135
 20
0.5680
 30
 0.0
 42
1.0
  0
VERTEX
  8
SST
 10
1.7165
 20
0.5680
 30
 0.0
 42
1.0
  0
SEQEND
  8
SST
  0
POLYLINE
  8
SST
 66
      1
 70
1
 40
0.0060
 41
0.0060
  0
VERTEX
  8
SST
 10
1.7070
 20
0.5250
 30
 0.0
  0
VERTEX
  8
SST
 10
1.6720
 20
0.5250
 30
 0.0
  0
VERTEX
  8
SST
 10
1.6720
 20
0.5150
 30
 0.0
  0
VERTEX
  8
SST
 10
1.7070
 20
0.5150
 30
 0.0
  0
VERTEX
  8
SST
 10
1.7070
 20
0.5250
 30
 0.0
 42
-1.852941921246063
  0
SEQEND
  8
SST
  0
POLYLINE
  8
SST
 66
      1
 70
1
 40
0.0030
 41
0.0030
  0
VERTEX
  8
SST
 10
1.7055
 20
0.5250
 30
 0.0
 42
1.0
  0
VERTEX
  8
SST
 10
1.7085
 20
0.5250
 30
 0.0
 42
1.0
  0
SEQEND
  8
SST
  0
POLYLINE
  8
SST
 66
      1
 70
1
 40
0.0030
 41
0.0030
  0
VERTEX
  8
SST
 10
1.6705
 20
0.5250
 30
 0.0
 42
1.0
  0
VERTEX
  8
SST
 10
1.6735
 20
0.5250
 30
 0.0
 42
1.0
  0
SEQEND
  8
SST
  0
POLYLINE
  8
SST
 66
      1
 70
1
 40
0.0030
 41
0.0030
  0
VERTEX
  8
SST
 10
1.6705
 20
0.5150
 30
 0.0
 42
1.0
  0
VERTEX
  8
SST
 10
1.6735
 20
0.5150
 30
 0.0
 42
1.0
  0
SEQEND
  8
SST
  0
POLYLINE
  8
SST
 66
      1
 70
1
 40
0.0030
 41
0.0030
  0
VERTEX
  8
SST
 10
1.7055
 20
0.5150
 30
 0.0
 42
1.0
  0
VERTEX
  8
SST
 10
1.7085
 20
0.5150
 30
 0.0
 42
1.0
  0
SEQEND
  8
SST
  0
POLYLINE
  8
SST
 66
      1
 70
1
 40
0.0030
 41
0.0030
  0
VERTEX
  8
SST
 10
1.7055
 20
0.5250
 30
 0.0
 42
1.0
  0
VERTEX
  8
SST
 10
1.7085
 20
0.5250
 30
 0.0
 42
1.0
  0
SEQEND
  8
SST
  0
POLYLINE
  8
SST
 66
      1
 70
0
 40
0.0080
 41
0.0080
  0
VERTEX
  8
SST
 10
1.4400
 20
1.3830
 30
 0.0
  0
VERTEX
  8
SST
 10
1.0540
 20
1.3830
 30
 0.0
  0
SEQEND
  8
SST
  0
POLYLINE
  8
SST
 66
      1
 70
1
 40
0.0040
 41
0.0040
  0
VERTEX
  8
SST
 10
1.4380
 20
1.3830
 30
 0.0
 42
1.0
  0
VERTEX
  8
SST
 10
1.4420
 20
1.3830
 30
 0.0
 42
1.0
  0
SEQEND
  8
SST
  0
POLYLINE
  8
SST
 66
      1
 70
1
 40
0.0040
 41
0.0040
  0
VERTEX
  8
SST
 10
1.0520
 20
1.3830
 30
 0.0
 42
1.0
  0
VERTEX
  8
SST
 10
1.0560
 20
1.3830
 30
 0.0
 42
1.0
  0
SEQEND
  8
SST
  0
POLYLINE
  8
SST
 66
      1
 70
0
 40
0.0080
 41
0.0080
  0
VERTEX
  8
SST
 10
1.1680
 20
1.5010
 30
 0.0
  0
VERTEX
  8
SST
 10
1.1170
 20
1.5010
 30
 0.0
  0
SEQEND
  8
SST
  0
POLYLINE
  8
SST
 66
      1
 70
1
 40
0.0040
 41
0.0040
  0
VERTEX
  8
SST
 10
1.1660
 20
1.5010
 30
 0.0
 42
1.0
  0
VERTEX
  8
SST
 10
1.1700
 20
1.5010
 30
 0.0
 42
1.0
  0
SEQEND
  8
SST
  0
POLYLINE
  8
SST
 66
      1
 70
1
 40
0.0040
 41
0.0040
  0
VERTEX
  8
SST
 10
1.1150
 20
1.5010
 30
 0.0
 42
1.0
  0
VERTEX
  8
SST
 10
1.1190
 20
1.5010
 30
 0.0
 42
1.0
  0
SEQEND
  8
SST
  0
POLYLINE
  8
SST
 66
      1
 70
0
 40
0.0080
 41
0.0080
  0
VERTEX
  8
SST
 10
1.1440
 20
1.4760
 30
 0.0
  0
VERTEX
  8
SST
 10
1.1440
 20
1.5290
 30
 0.0
  0
SEQEND
  8
SST
  0
POLYLINE
  8
SST
 66
      1
 70
1
 40
0.0040
 41
0.0040
  0
VERTEX
  8
SST
 10
1.1420
 20
1.4760
 30
 0.0
 42
1.0
  0
VERTEX
  8
SST
 10
1.1460
 20
1.4760
 30
 0.0
 42
1.0
  0
SEQEND
  8
SST
  0
POLYLINE
  8
SST
 66
      1
 70
1
 40
0.0040
 41
0.0040
  0
VERTEX
  8
SST
 10
1.1420
 20
1.5290
 30
 0.0
 42
1.0
  0
VERTEX
  8
SST
 10
1.1460
 20
1.5290
 30
 0.0
 42
1.0
  0
SEQEND
  8
SST
  0
POLYLINE
  8
SST
 66
      1
 70
1
 40
0.0080
 41
0.0080
  0
VERTEX
  8
SST
 10
1.2470
 20
1.2400
 30
 0.0
 42
-0.414213562373095
  0
VERTEX
  8
SST
 10
1.0470
 20
1.4400
 30
 0.0
 42
-0.414213562373095
  0
VERTEX
  8
SST
 10
1.2470
 20
1.6400
 30
 0.0
 42
-0.414213562373095
  0
VERTEX
  8
SST
 10
1.4470
 20
1.4400
 30
 0.0
 42
-0.414213562373095
  0
VERTEX
  8
SST
 10
1.2470
 20
1.2400
 30
 0.0
 42
5.613857483403799
  0
SEQEND
  8
SST
  0
POLYLINE
  8
SST
 66
      1
 70
1
 40
0.0040
 41
0.0040
  0
VERTEX
  8
SST
 10
1.2450
 20
1.2400
 30
 0.0
 42
1.0
  0
VERTEX
  8
SST
 10
1.2490
 20
1.2400
 30
 0.0
 42
1.0
  0
SEQEND
  8
SST
  0
POLYLINE
  8
SST
 66
      1
 70
1
 40
0.0040
 41
0.0040
  0
VERTEX
  8
SST
 10
1.0450
 20
1.4400
 30
 0.0
 42
1.0
  0
VERTEX
  8
SST
 10
1.0490
 20
1.4400
 30
 0.0
 42
1.0
  0
SEQEND
  8
SST
  0
POLYLINE
  8
SST
 66
      1
 70
1
 40
0.0040
 41
0.0040
  0
VERTEX
  8
SST
 10
1.2450
 20
1.6400
 30
 0.0
 42
1.0
  0
VERTEX
  8
SST
 10
1.2490
 20
1.6400
 30
 0.0
 42
1.0
  0
SEQEND
  8
SST
  0
POLYLINE
  8
SST
 66
      1
 70
1
 40
0.0040
 41
0.0040
  0
VERTEX
  8
SST
 10
1.4450
 20
1.4400
 30
 0.0
 42
1.0
  0
VERTEX
  8
SST
 10
1.4490
 20
1.4400
 30
 0.0
 42
1.0
  0
SEQEND
  8
SST
  0
POLYLINE
  8
SST
 66
      1
 70
1
 40
0.0040
 41
0.0040
  0
VERTEX
  8
SST
 10
1.2450
 20
1.2400
 30
 0.0
 42
1.0
  0
VERTEX
  8
SST
 10
1.2490
 20
1.2400
 30
 0.0
 42
1.0
  0
SEQEND
  8
SST
  0
POLYLINE
  8
SST
 66
      1
 70
1
 40
0.0060
 41
0.0060
  0
VERTEX
  8
SST
 10
1.7120
 20
1.0100
 30
 0.0
  0
VERTEX
  8
SST
 10
1.6620
 20
1.0100
 30
 0.0
  0
VERTEX
  8
SST
 10
1.6620
 20
0.9150
 30
 0.0
  0
VERTEX
  8
SST
 10
1.7120
 20
0.9150
 30
 0.0
  0
VERTEX
  8
SST
 10
1.7120
 20
1.0100
 30
 0.0
 42
-5.297351702367863
  0
SEQEND
  8
SST
  0
POLYLINE
  8
SST
 66
      1
 70
1
 40
0.0030
 41
0.0030
  0
VERTEX
  8
SST
 10
1.7105
 20
1.0100
 30
 0.0
 42
1.0
  0
VERTEX
  8
SST
 10
1.7135
 20
1.0100
 30
 0.0
 42
1.0
  0
SEQEND
  8
SST
  0
POLYLINE
  8
SST
 66
      1
 70
1
 40
0.0030
 41
0.0030
  0
VERTEX
  8
SST
 10
1.6605
 20
1.0100
 30
 0.0
 42
1.0
  0
VERTEX
  8
SST
 10
1.6635
 20
1.0100
 30
 0.0
 42
1.0
  0
SEQEND
  8
SST
  0
POLYLINE
  8
SST
 66
      1
 70
1
 40
0.0030
 41
0.0030
  0
VERTEX
  8
SST
 10
1.6605
 20
0.9150
 30
 0.0
 42
1.0
  0
VERTEX
  8
SST
 10
1.6635
 20
0.9150
 30
 0.0
 42
1.0
  0
SEQEND
  8
SST
  0
POLYLINE
  8
SST
 66
      1
 70
1
 40
0.0030
 41
0.0030
  0
VERTEX
  8
SST
 10
1.7105
 20
0.9150
 30
 0.0
 42
1.0
  0
VERTEX
  8
SST
 10
1.7135
 20
0.9150
 30
 0.0
 42
1.0
  0
SEQEND
  8
SST
  0
POLYLINE
  8
SST
 66
      1
 70
1
 40
0.0030
 41
0.0030
  0
VERTEX
  8
SST
 10
1.7105
 20
1.0100
 30
 0.0
 42
1.0
  0
VERTEX
  8
SST
 10
1.7135
 20
1.0100
 30
 0.0
 42
1.0
  0
SEQEND
  8
SST
  0
POLYLINE
  8
SST
 66
      1
 70
1
 40
0.0060
 41
0.0060
  0
VERTEX
  8
SST
 10
1.7040
 20
0.9670
 30
 0.0
  0
VERTEX
  8
SST
 10
1.6690
 20
0.9670
 30
 0.0
  0
VERTEX
  8
SST
 10
1.6690
 20
0.9570
 30
 0.0
  0
VERTEX
  8
SST
 10
1.7040
 20
0.9570
 30
 0.0
  0
VERTEX
  8
SST
 10
1.7040
 20
0.9670
 30
 0.0
 42
-4.916734270835807
  0
SEQEND
  8
SST
  0
POLYLINE
  8
SST
 66
      1
 70
1
 40
0.0030
 41
0.0030
  0
VERTEX
  8
SST
 10
1.7025
 20
0.9670
 30
 0.0
 42
1.0
  0
VERTEX
  8
SST
 10
1.7055
 20
0.9670
 30
 0.0
 42
1.0
  0
SEQEND
  8
SST
  0
POLYLINE
  8
SST
 66
      1
 70
1
 40
0.0030
 41
0.0030
  0
VERTEX
  8
SST
 10
1.6675
 20
0.9670
 30
 0.0
 42
1.0
  0
VERTEX
  8
SST
 10
1.6705
 20
0.9670
 30
 0.0
 42
1.0
  0
SEQEND
  8
SST
  0
POLYLINE
  8
SST
 66
      1
 70
1
 40
0.0030
 41
0.0030
  0
VERTEX
  8
SST
 10
1.6675
 20
0.9570
 30
 0.0
 42
1.0
  0
VERTEX
  8
SST
 10
1.6705
 20
0.9570
 30
 0.0
 42
1.0
  0
SEQEND
  8
SST
  0
POLYLINE
  8
SST
 66
      1
 70
1
 40
0.0030
 41
0.0030
  0
VERTEX
  8
SST
 10
1.7025
 20
0.9570
 30
 0.0
 42
1.0
  0
VERTEX
  8
SST
 10
1.7055
 20
0.9570
 30
 0.0
 42
1.0
  0
SEQEND
  8
SST
  0
POLYLINE
  8
SST
 66
      1
 70
1
 40
0.0030
 41
0.0030
  0
VERTEX
  8
SST
 10
1.7025
 20
0.9670
 30
 0.0
 42
1.0
  0
VERTEX
  8
SST
 10
1.7055
 20
0.9670
 30
 0.0
 42
1.0
  0
SEQEND
  8
SST
  0
POLYLINE
  8
SST
 66
      1
 70
0
 40
0.0080
 41
0.0080
  0
VERTEX
  8
SST
 10
1.8670
 20
1.3830
 30
 0.0
  0
VERTEX
  8
SST
 10
1.4810
 20
1.3830
 30
 0.0
  0
SEQEND
  8
SST
  0
POLYLINE
  8
SST
 66
      1
 70
1
 40
0.0040
 41
0.0040
  0
VERTEX
  8
SST
 10
1.8650
 20
1.3830
 30
 0.0
 42
1.0
  0
VERTEX
  8
SST
 10
1.8690
 20
1.3830
 30
 0.0
 42
1.0
  0
SEQEND
  8
SST
  0
POLYLINE
  8
SST
 66
      1
 70
1
 40
0.0040
 41
0.0040
  0
VERTEX
  8
SST
 10
1.4790
 20
1.3830
 30
 0.0
 42
1.0
  0
VERTEX
  8
SST
 10
1.4830
 20
1.3830
 30
 0.0
 42
1.0
  0
SEQEND
  8
SST
  0
POLYLINE
  8
SST
 66
      1
 70
0
 40
0.0080
 41
0.0080
  0
VERTEX
  8
SST
 10
1.5950
 20
1.5010
 30
 0.0
  0
VERTEX
  8
SST
 10
1.5440
 20
1.5010
 30
 0.0
  0
SEQEND
  8
SST
  0
POLYLINE
  8
SST
 66
      1
 70
1
 40
0.0040
 41
0.0040
  0
VERTEX
  8
SST
 10
1.5930
 20
1.5010
 30
 0.0
 42
1.0
  0
VERTEX
  8
SST
 10
1.5970
 20
1.5010
 30
 0.0
 42
1.0
  0
SEQEND
  8
SST
  0
POLYLINE
  8
SST
 66
      1
 70
1
 40
0.0040
 41
0.0040
  0
VERTEX
  8
SST
 10
1.5420
 20
1.5010
 30
 0.0
 42
1.0
  0
VERTEX
  8
SST
 10
1.5460
 20
1.5010
 30
 0.0
 42
1.0
  0
SEQEND
  8
SST
  0
POLYLINE
  8
SST
 66
      1
 70
0
 40
0.0080
 41
0.0080
  0
VERTEX
  8
SST
 10
1.5710
 20
1.4760
 30
 0.0
  0
VERTEX
  8
SST
 10
1.5710
 20
1.5290
 30
 0.0
  0
SEQEND
  8
SST
  0
POLYLINE
  8
SST
 66
      1
 70
1
 40
0.0040
 41
0.0040
  0
VERTEX
  8
SST
 10
1.5690
 20
1.4760
 30
 0.0
 42
1.0
  0
VERTEX
  8
SST
 10
1.5730
 20
1.4760
 30
 0.0
 42
1.0
  0
SEQEND
  8
SST
  0
POLYLINE
  8
SST
 66
      1
 70
1
 40
0.0040
 41
0.0040
  0
VERTEX
  8
SST
 10
1.5690
 20
1.5290
 30
 0.0
 42
1.0
  0
VERTEX
  8
SST
 10
1.5730
 20
1.5290
 30
 0.0
 42
1.0
  0
SEQEND
  8
SST
  0
POLYLINE
  8
SST
 66
      1
 70
1
 40
0.0080
 41
0.0080
  0
VERTEX
  8
SST
 10
1.6740
 20
1.2400
 30
 0.0
 42
-0.414213562373095
  0
VERTEX
  8
SST
 10
1.4740
 20
1.4400
 30
 0.0
 42
-0.414213562373095
  0
VERTEX
  8
SST
 10
1.6740
 20
1.6400
 30
 0.0
 42
-0.414213562373095
  0
VERTEX
  8
SST
 10
1.8740
 20
1.4400
 30
 0.0
 42
-0.414213562373095
  0
VERTEX
  8
SST
 10
1.6740
 20
1.2400
 30
 0.0
 42
47.49667755321762
  0
SEQEND
  8
SST
  0
POLYLINE
  8
SST
 66
      1
 70
1
 40
0.0040
 41
0.0040
  0
VERTEX
  8
SST
 10
1.6720
 20
1.2400
 30
 0.0
 42
1.0
  0
VERTEX
  8
SST
 10
1.6760
 20
1.2400
 30
 0.0
 42
1.0
  0
SEQEND
  8
SST
  0
POLYLINE
  8
SST
 66
      1
 70
1
 40
0.0040
 41
0.0040
  0
VERTEX
  8
SST
 10
1.4720
 20
1.4400
 30
 0.0
 42
1.0
  0
VERTEX
  8
SST
 10
1.4760
 20
1.4400
 30
 0.0
 42
1.0
  0
SEQEND
  8
SST
  0
POLYLINE
  8
SST
 66
      1
 70
1
 40
0.0040
 41
0.0040
  0
VERTEX
  8
SST
 10
1.6720
 20
1.6400
 30
 0.0
 42
1.0
  0
VERTEX
  8
SST
 10
1.6760
 20
1.6400
 30
 0.0
 42
1.0
  0
SEQEND
  8
SST
  0
POLYLINE
  8
SST
 66
      1
 70
1
 40
0.0040
 41
0.0040
  0
VERTEX
  8
SST
 10
1.8720
 20
1.4400
 30
 0.0
 42
1.0
  0
VERTEX
  8
SST
 10
1.8760
 20
1.4400
 30
 0.0
 42
1.0
  0
SEQEND
  8
SST
  0
POLYLINE
  8
SST
 66
      1
 70
1
 40
0.0040
 41
0.0040
  0
VERTEX
  8
SST
 10
1.6720
 20
1.2400
 30
 0.0
 42
1.0
  0
VERTEX
  8
SST
 10
1.6760
 20
1.2400
 30
 0.0
 42
1.0
  0
SEQEND
  8
SST
  0
POLYLINE
  8
SST
 66
      1
 70
0
 40
0.0060
 41
0.0060
  0
VERTEX
  8
SST
 10
1.4140
 20
0.6360
 30
 0.0
  0
VERTEX
  8
SST
 10
1.4140
 20
0.6310
 30
 0.0
  0
VERTEX
  8
SST
 10
1.4440
 20
0.6310
 30
 0.0
  0
VERTEX
  8
SST
 10
1.4440
 20
0.6050
 30
 0.0
  0
SEQEND
  8
SST
  0
POLYLINE
  8
SST
 66
      1
 70
1
 40
0.0030
 41
0.0030
  0
VERTEX
  8
SST
 10
1.4125
 20
0.6360
 30
 0.0
 42
1.0
  0
VERTEX
  8
SST
 10
1.4155
 20
0.6360
 30
 0.0
 42
1.0
  0
SEQEND
  8
SST
  0
POLYLINE
  8
SST
 66
      1
 70
1
 40
0.0030
 41
0.0030
  0
VERTEX
  8
SST
 10
1.4125
 20
0.6310
 30
 0.0
 42
1.0
  0
VERTEX
  8
SST
 10
1.4155
 20
0.6310
 30
 0.0
 42
1.0
  0
SEQEND
  8
SST
  0
POLYLINE
  8
SST
 66
      1
 70
1
 40
0.0030
 41
0.0030
  0
VERTEX
  8
SST
 10
1.4425
 20
0.6310
 30
 0.0
 42
1.0
  0
VERTEX
  8
SST
 10
1.4455
 20
0.6310
 30
 0.0
 42
1.0
  0
SEQEND
  8
SST
  0
POLYLINE
  8
SST
 66
      1
 70
1
 40
0.0030
 41
0.0030
  0
VERTEX
  8
SST
 10
1.4425
 20
0.6050
 30
 0.0
 42
1.0
  0
VERTEX
  8
SST
 10
1.4455
 20
0.6050
 30
 0.0
 42
1.0
  0
SEQEND
  8
SST
  0
POLYLINE
  8
SST
 66
      1
 70
0
 40
0.0060
 41
0.0060
  0
VERTEX
  8
SST
 10
1.6530
 20
0.5680
 30
 0.0
  0
VERTEX
  8
SST
 10
1.6480
 20
0.5680
 30
 0.0
  0
VERTEX
  8
SST
 10
1.6480
 20
0.5380
 30
 0.0
  0
VERTEX
  8
SST
 10
1.6220
 20
0.5380
 30
 0.0
  0
SEQEND
  8
SST
  0
POLYLINE
  8
SST
 66
      1
 70
1
 40
0.0030
 41
0.0030
  0
VERTEX
  8
SST
 10
1.6515
 20
0.5680
 30
 0.0
 42
1.0
  0
VERTEX
  8
SST
 10
1.6545
 20
0.5680
 30
 0.0
 42
1.0
  0
SEQEND
  8
SST
  0
POLYLINE
  8
SST
 66
      1
 70
1
 40
0.0030
 41
0.0030
  0
VERTEX
  8
SST
 10
1.6465
 20
0.5680
 30
 0.0
 42
1.0
  0
VERTEX
  8
SST
 10
1.6495
 20
0.5680
 30
 0.0
 42
1.0
  0
SEQEND
  8
SST
  0
POLYLINE
  8
SST
 66
      1
 70
1
 40
0.0030
 41
0.0030
  0
VERTEX
  8
SST
 10
1.6465
 20
0.5380
 30
 0.0
 42
1.0
  0
VERTEX
  8
SST
 10
1.6495
 20
0.5380
 30
 0.0
 42
1.0
  0
SEQEND
  8
SST
  0
POLYLINE
  8
SST
 66
      1
 70
1
 40
0.0030
 41
0.0030
  0
VERTEX
  8
SST
 10
1.6205
 20
0.5380
 30
 0.0
 42
1.0
  0
VERTEX
  8
SST
 10
1.6235
 20
0.5380
 30
 0.0
 42
1.0
  0
SEQEND
  8
SST
  0
POLYLINE
  8
SST
 66
      1
 70
0
 40
0.0060
 41
0.0060
  0
VERTEX
  8
SST
 10
1.6490
 20
1.0260
 30
 0.0
  0
VERTEX
  8
SST
 10
1.6440
 20
1.0260
 30
 0.0
  0
VERTEX
  8
SST
 10
1.6440
 20
0.9960
 30
 0.0
  0
VERTEX
  8
SST
 10
1.6180
 20
0.9960
 30
 0.0
  0
SEQEND
  8
SST
  0
POLYLINE
  8
SST
 66
      1
 70
1
 40
0.0030
 41
0.0030
  0
VERTEX
  8
SST
 10
1.6475
 20
1.0260
 30
 0.0
 42
1.0
  0
VERTEX
  8
SST
 10
1.6505
 20
1.0260
 30
 0.0
 42
1.0
  0
SEQEND
  8
SST
  0
POLYLINE
  8
SST
 66
      1
 70
1
 40
0.0030
 41
0.0030
  0
VERTEX
  8
SST
 10
1.6425
 20
1.0260
 30
 0.0
 42
1.0
  0
VERTEX
  8
SST
 10
1.6455
 20
1.0260
 30
 0.0
 42
1.0
  0
SEQEND
  8
SST
  0
POLYLINE
  8
SST
 66
      1
 70
1
 40
0.0030
 41
0.0030
  0
VERTEX
  8
SST
 10
1.6425
 20
0.9960
 30
 0.0
 42
1.0
  0
VERTEX
  8
SST
 10
1.6455
 20
0.9960
 30
 0.0
 42
1.0
  0
SEQEND
  8
SST
  0
POLYLINE
  8
SST
 66
      1
 70
1
 40
0.0030
 41
0.0030
  0
VERTEX
  8
SST
 10
1.6165
 20
0.9960
 30
 0.0
 42
1.0
  0
VERTEX
  8
SST
 10
1.6195
 20
0.9960
 30
 0.0
 42
1.0
  0
SEQEND
  8
SST
  0
POLYLINE
  8
SST
 66
      1
 70
0
 40
0.0060
 41
0.0060
  0
VERTEX
  8
SST
 10
1.2730
 20
1.2160
 30
 0.0
  0
VERTEX
  8
SST
 10
1.2130
 20
1.1560
 30
 0.0
  0
VERTEX
  8
SST
 10
1.2730
 20
1.0960
 30
 0.0
  0
VERTEX
  8
SST
 10
1.2730
 20
1.2130
 30
 0.0
  0
SEQEND
  8
SST
  0
POLYLINE
  8
SST
 66
      1
 70
1
 40
0.0030
 41
0.0030
  0
VERTEX
  8
SST
 10
1.2715
 20
1.2160
 30
 0.0
 42
1.0
  0
VERTEX
  8
SST
 10
1.2745
 20
1.2160
 30
 0.0
 42
1.0
  0
SEQEND
  8
SST
  0
POLYLINE
  8
SST
 66
      1
 70
1
 40
0.0030
 41
0.0030
  0
VERTEX
  8
SST
 10
1.2115
 20
1.1560
 30
 0.0
 42
1.0
  0
VERTEX
  8
SST
 10
1.2145
 20
1.1560
 30
 0.0
 42
1.0
  0
SEQEND
  8
SST
  0
POLYLINE
  8
SST
 66
      1
 70
1
 40
0.0030
 41
0.0030
  0
VERTEX
  8
SST
 10
1.2715
 20
1.0960
 30
 0.0
 42
1.0
  0
VERTEX
  8
SST
 10
1.2745
 20
1.0960
 30
 0.0
 42
1.0
  0
SEQEND
  8
SST
  0
POLYLINE
  8
SST
 66
      1
 70
1
 40
0.0030
 41
0.0030
  0
VERTEX
  8
SST
 10
1.2715
 20
1.2130
 30
 0.0
 42
1.0
  0
VERTEX
  8
SST
 10
1.2745
 20
1.2130
 30
 0.0
 42
1.0
  0
SEQEND
  8
SST
  0
POLYLINE
  8
SST
 66
      1
 70
0
 40
0.0060
 41
0.0060
  0
VERTEX
  8
SST
 10
1.2080
 20
1.0980
 30
 0.0
  0
VERTEX
  8
SST
 10
1.2080
 20
1.2130
 30
 0.0
  0
SEQEND
  8
SST
  0
POLYLINE
  8
SST
 66
      1
 70
1
 40
0.0030
 41
0.0030
  0
VERTEX
  8
SST
 10
1.2065
 20
1.0980
 30
 0.0
 42
1.0
  0
VERTEX
  8
SST
 10
1.2095
 20
1.0980
 30
 0.0
 42
1.0
  0
SEQEND
  8
SST
  0
POLYLINE
  8
SST
 66
      1
 70
1
 40
0.0030
 41
0.0030
  0
VERTEX
  8
SST
 10
1.2065
 20
1.2130
 30
 0.0
 42
1.0
  0
VERTEX
  8
SST
 10
1.2095
 20
1.2130
 30
 0.0
 42
1.0
  0
SEQEND
  8
SST
  0
POLYLINE
  8
SST
 66
      1
 70
1
 40
0.0060
 41
0.0060
  0
VERTEX
  8
SST
 10
0.8260
 20
1.5110
 30
 0.0
  0
VERTEX
  8
SST
 10
0.7660
 20
1.5110
 30
 0.0
  0
VERTEX
  8
SST
 10
0.7660
 20
1.5610
 30
 0.0
  0
VERTEX
  8
SST
 10
0.8260
 20
1.5610
 30
 0.0
  0
VERTEX
  8
SST
 10
0.8260
 20
1.5110
 30
 0.0
 42
-0.9590827280671369
  0
SEQEND
  8
SST
  0
POLYLINE
  8
SST
 66
      1
 70
1
 40
0.0030
 41
0.0030
  0
VERTEX
  8
SST
 10
0.8245
 20
1.5110
 30
 0.0
 42
1.0
  0
VERTEX
  8
SST
 10
0.8275
 20
1.5110
 30
 0.0
 42
1.0
  0
SEQEND
  8
SST
  0
POLYLINE
  8
SST
 66
      1
 70
1
 40
0.0030
 41
0.0030
  0
VERTEX
  8
SST
 10
0.7645
 20
1.5110
 30
 0.0
 42
1.0
  0
VERTEX
  8
SST
 10
0.7675
 20
1.5110
 30
 0.0
 42
1.0
  0
SEQEND
  8
SST
  0
POLYLINE
  8
SST
 66
      1
 70
1
 40
0.0030
 41
0.0030
  0
VERTEX
  8
SST
 10
0.7645
 20
1.5610
 30
 0.0
 42
1.0
  0
VERTEX
  8
SST
 10
0.7675
 20
1.5610
 30
 0.0
 42
1.0
  0
SEQEND
  8
SST
  0
POLYLINE
  8
SST
 66
      1
 70
1
 40
0.0030
 41
0.0030
  0
VERTEX
  8
SST
 10
0.8245
 20
1.5610
 30
 0.0
 42
1.0
  0
VERTEX
  8
SST
 10
0.8275
 20
1.5610
 30
 0.0
 42
1.0
  0
SEQEND
  8
SST
  0
POLYLINE
  8
SST
 66
      1
 70
1
 40
0.0030
 41
0.0030
  0
VERTEX
  8
SST
 10
0.8245
 20
1.5110
 30
 0.0
 42
1.0
  0
VERTEX
  8
SST
 10
0.8275
 20
1.5110
 30
 0.0
 42
1.0
  0
SEQEND
  8
SST
  0
POLYLINE
  8
0
 66
      1
 70
0
 40
0.0120
 41
0.0120
  0
VERTEX
  8
0
 10
0.3690
 20
0.2780
 30
 0.0
  0
VERTEX
  8
0
 10
0.3100
 20
0.2580
 30
 0.0
  0
VERTEX
  8
0
 10
0.3690
 20
0.2390
 30
 0.0
  0
SEQEND
  8
0
  0
POLYLINE
  8
0
 66
      1
 70
1
 40
0.0060
 41
0.0060
  0
VERTEX
  8
0
 10
0.3660
 20
0.2780
 30
 0.0
 42
1.0
  0
VERTEX
  8
0
 10
0.3720
 20
0.2780
 30
 0.0
 42
1.0
  0
SEQEND
  8
0
  0
POLYLINE
  8
0
 66
      1
 70
1
 40
0.0060
 41
0.0060
  0
VERTEX
  8
0
 10
0.3070
 20
0.2580
 30
 0.0
 42
1.0
  0
VERTEX
  8
0
 10
0.3130
 20
0.2580
 30
 0.0
 42
1.0
  0
SEQEND
  8
0
  0
POLYLINE
  8
0
 66
      1
 70
1
 40
0.0060
 41
0.0060
  0
VERTEX
  8
0
 10
0.3660
 20
0.2390
 30
 0.0
 42
1.0
  0
VERTEX
  8
0
 10
0.3720
 20
0.2390
 30
 0.0
 42
1.0
  0
SEQEND
  8
0
  0
POLYLINE
  8
0
 66
      1
 70
0
 40
0.0120
 41
0.0120
  0
VERTEX
  8
0
 10
0.3100
 20
0.2580
 30
 0.0
  0
VERTEX
  8
0
 10
0.2290
 20
0.2580
 30
 0.0
  0
SEQEND
  8
0
  0
POLYLINE
  8
0
 66
      1
 70
1
 40
0.0060
 41
0.0060
  0
VERTEX
  8
0
 10
0.3070
 20
0.2580
 30
 0.0
 42
1.0
  0
VERTEX
  8
0
 10
0.3130
 20
0.2580
 30
 0.0
 42
1.0
  0
SEQEND
  8
0
  0
POLYLINE
  8
0
 66
      1
 70
1
 40
0.0060
 41
0.0060
  0
VERTEX
  8
0
 10
0.2260
 20
0.2580
 30
 0.0
 42
1.0
  0
VERTEX
  8
0
 10
0.2320
 20
0.2580
 30
 0.0
 42
1.0
  0
SEQEND
  8
0
  0
POLYLINE
  8
0
 66
      1
 70
0
 40
0.0120
 41
0.0120
  0
VERTEX
  8
0
 10
0.3100
 20
0.3760
 30
 0.0
  0
VERTEX
  8
0
 10
0.3100
 20
0.1400
 30
 0.0
  0
SEQEND
  8
0
  0
POLYLINE
  8
0
 66
      1
 70
1
 40
0.0060
 41
0.0060
  0
VERTEX
  8
0
 10
0.3070
 20
0.3760
 30
 0.0
 42
1.0
  0
VERTEX
  8
0
 10
0.3130
 20
0.3760
 30
 0.0
 42
1.0
  0
SEQEND
  8
0
  0
POLYLINE
  8
0
 66
      1
 70
1
 40
0.0060
 41
0.0060
  0
VERTEX
  8
0
 10
0.3070
 20
0.1400
 30
 0.0
 42
1.0
  0
VERTEX
  8
0
 10
0.3130
 20
0.1400
 30
 0.0
 42
1.0
  0
SEQEND
  8
0
  0
POLYLINE
  8
0
 66
      1
 70
0
 40
0.0120
 41
0.0120
  0
VERTEX
  8
0
 10
0.2610
 20
0.3510
 30
 0.0
  0
VERTEX
  8
0
 10
0.2810
 20
0.2920
 30
 0.0
  0
VERTEX
  8
0
 10
0.3000
 20
0.3510
 30
 0.0
  0
SEQEND
  8
0
  0
POLYLINE
  8
0
 66
      1
 70
1
 40
0.0060
 41
0.0060
  0
VERTEX
  8
0
 10
0.2580
 20
0.3510
 30
 0.0
 42
1.0
  0
VERTEX
  8
0
 10
0.2640
 20
0.3510
 30
 0.0
 42
1.0
  0
SEQEND
  8
0
  0
POLYLINE
  8
0
 66
      1
 70
1
 40
0.0060
 41
0.0060
  0
VERTEX
  8
0
 10
0.2780
 20
0.2920
 30
 0.0
 42
1.0
  0
VERTEX
  8
0
 10
0.2840
 20
0.2920
 30
 0.0
 42
1.0
  0
SEQEND
  8
0
  0
POLYLINE
  8
0
 66
      1
 70
1
 40
0.0060
 41
0.0060
  0
VERTEX
  8
0
 10
0.2970
 20
0.3510
 30
 0.0
 42
1.0
  0
VERTEX
  8
0
 10
0.3030
 20
0.3510
 30
 0.0
 42
1.0
  0
SEQEND
  8
0
  0
POLYLINE
  8
0
 66
      1
 70
0
 40
0.0120
 41
0.0120
  0
VERTEX
  8
0
 10
0.2810
 20
0.2920
 30
 0.0
  0
VERTEX
  8
0
 10
0.2810
 20
0.2110
 30
 0.0
  0
SEQEND
  8
0
  0
POLYLINE
  8
0
 66
      1
 70
1
 40
0.0060
 41
0.0060
  0
VERTEX
  8
0
 10
0.2780
 20
0.2920
 30
 0.0
 42
1.0
  0
VERTEX
  8
0
 10
0.2840
 20
0.2920
 30
 0.0
 42
1.0
  0
SEQEND
  8
0
  0
POLYLINE
  8
0
 66
      1
 70
1
 40
0.0060
 41
0.0060
  0
VERTEX
  8
0
 10
0.2780
 20
0.2110
 30
 0.0
 42
1.0
  0
VERTEX
  8
0
 10
0.2840
 20
0.2110
 30
 0.0
 42
1.0
  0
SEQEND
  8
0
  0
POLYLINE
  8
0
 66
      1
 70
0
 40
0.0120
 41
0.0120
  0
VERTEX
  8
0
 10
0.1630
 20
0.2920
 30
 0.0
  0
VERTEX
  8
0
 10
0.3990
 20
0.2920
 30
 0.0
  0
SEQEND
  8
0
  0
POLYLINE
  8
0
 66
      1
 70
1
 40
0.0060
 41
0.0060
  0
VERTEX
  8
0
 10
0.1600
 20
0.2920
 30
 0.0
 42
1.0
  0
VERTEX
  8
0
 10
0.1660
 20
0.2920
 30
 0.0
 42
1.0
  0
SEQEND
  8
0
  0
POLYLINE
  8
0
 66
      1
 70
1
 40
0.0060
 41
0.0060
  0
VERTEX
  8
0
 10
0.3960
 20
0.2920
 30
 0.0
 42
1.0
  0
VERTEX
  8
0
 10
0.4020
 20
0.2920
 30
 0.0
 42
1.0
  0
SEQEND
  8
0
  0
POLYLINE
  8
0
 66
      1
 70
0
 40
0.0120
 41
0.0120
  0
VERTEX
  8
0
 10
0.3000
 20
0.3870
 30
 0.0
  0
VERTEX
  8
0
 10
0.2810
 20
0.4460
 30
 0.0
  0
VERTEX
  8
0
 10
0.2610
 20
0.3870
 30
 0.0
  0
SEQEND
  8
0
  0
POLYLINE
  8
0
 66
      1
 70
1
 40
0.0060
 41
0.0060
  0
VERTEX
  8
0
 10
0.2970
 20
0.3870
 30
 0.0
 42
1.0
  0
VERTEX
  8
0
 10
0.3030
 20
0.3870
 30
 0.0
 42
1.0
  0
SEQEND
  8
0
  0
POLYLINE
  8
0
 66
      1
 70
1
 40
0.0060
 41
0.0060
  0
VERTEX
  8
0
 10
0.2780
 20
0.4460
 30
 0.0
 42
1.0
  0
VERTEX
  8
0
 10
0.2840
 20
0.4460
 30
 0.0
 42
1.0
  0
SEQEND
  8
0
  0
POLYLINE
  8
0
 66
      1
 70
1
 40
0.0060
 41
0.0060
  0
VERTEX
  8
0
 10
0.2580
 20
0.3870
 30
 0.0
 42
1.0
  0
VERTEX
  8
0
 10
0.2640
 20
0.3870
 30
 0.0
 42
1.0
  0
SEQEND
  8
0
  0
POLYLINE
  8
0
 66
      1
 70
0
 40
0.0120
 41
0.0120
  0
VERTEX
  8
0
 10
0.2810
 20
0.4460
 30
 0.0
  0
VERTEX
  8
0
 10
0.2810
 20
0.5270
 30
 0.0
  0
SEQEND
  8
0
  0
POLYLINE
  8
0
 66
      1
 70
1
 40
0.0060
 41
0.0060
  0
VERTEX
  8
0
 10
0.2780
 20
0.4460
 30
 0.0
 42
1.0
  0
VERTEX
  8
0
 10
0.2840
 20
0.4460
 30
 0.0
 42
1.0
  0
SEQEND
  8
0
  0
POLYLINE
  8
0
 66
      1
 70
1
 40
0.0060
 41
0.0060
  0
VERTEX
  8
0
 10
0.2780
 20
0.5270
 30
 0.0
 42
1.0
  0
VERTEX
  8
0
 10
0.2840
 20
0.5270
 30
 0.0
 42
1.0
  0
SEQEND
  8
0
  0
POLYLINE
  8
0
 66
      1
 70
0
 40
0.0120
 41
0.0120
  0
VERTEX
  8
0
 10
0.1630
 20
0.4460
 30
 0.0
  0
VERTEX
  8
0
 10
0.3990
 20
0.4460
 30
 0.0
  0
SEQEND
  8
0
  0
POLYLINE
  8
0
 66
      1
 70
1
 40
0.0060
 41
0.0060
  0
VERTEX
  8
0
 10
0.1600
 20
0.4460
 30
 0.0
 42
1.0
  0
VERTEX
  8
0
 10
0.1660
 20
0.4460
 30
 0.0
 42
1.0
  0
SEQEND
  8
0
  0
POLYLINE
  8
0
 66
      1
 70
1
 40
0.0060
 41
0.0060
  0
VERTEX
  8
0
 10
0.3960
 20
0.4460
 30
 0.0
 42
1.0
  0
VERTEX
  8
0
 10
0.4020
 20
0.4460
 30
 0.0
 42
1.0
  0
SEQEND
  8
0
  0
POLYLINE
  8
0
 66
      1
 70
0
 40
0.0120
 41
0.0120
  0
VERTEX
  8
0
 10
0.3680
 20
0.1440
 30
 0.0
  0
VERTEX
  8
0
 10
0.3090
 20
0.1240
 30
 0.0
  0
VERTEX
  8
0
 10
0.3680
 20
0.1040
 30
 0.0
  0
SEQEND
  8
0
  0
POLYLINE
  8
0
 66
      1
 70
1
 40
0.0060
 41
0.0060
  0
VERTEX
  8
0
 10
0.3650
 20
0.1440
 30
 0.0
 42
1.0
  0
VERTEX
  8
0
 10
0.3710
 20
0.1440
 30
 0.0
 42
1.0
  0
SEQEND
  8
0
  0
POLYLINE
  8
0
 66
      1
 70
1
 40
0.0060
 41
0.0060
  0
VERTEX
  8
0
 10
0.3060
 20
0.1240
 30
 0.0
 42
1.0
  0
VERTEX
  8
0
 10
0.3120
 20
0.1240
 30
 0.0
 42
1.0
  0
SEQEND
  8
0
  0
POLYLINE
  8
0
 66
      1
 70
1
 40
0.0060
 41
0.0060
  0
VERTEX
  8
0
 10
0.3650
 20
0.1040
 30
 0.0
 42
1.0
  0
VERTEX
  8
0
 10
0.3710
 20
0.1040
 30
 0.0
 42
1.0
  0
SEQEND
  8
0
  0
POLYLINE
  8
0
 66
      1
 70
0
 40
0.0120
 41
0.0120
  0
VERTEX
  8
0
 10
0.3090
 20
0.1240
 30
 0.0
  0
VERTEX
  8
0
 10
1.1780
 20
0.1240
 30
 0.0
  0
SEQEND
  8
0
  0
POLYLINE
  8
0
 66
      1
 70
1
 40
0.0060
 41
0.0060
  0
VERTEX
  8
0
 10
0.3060
 20
0.1240
 30
 0.0
 42
1.0
  0
VERTEX
  8
0
 10
0.3120
 20
0.1240
 30
 0.0
 42
1.0
  0
SEQEND
  8
0
  0
POLYLINE
  8
0
 66
      1
 70
1
 40
0.0060
 41
0.0060
  0
VERTEX
  8
0
 10
1.1750
 20
0.1240
 30
 0.0
 42
1.0
  0
VERTEX
  8
0
 10
1.1810
 20
0.1240
 30
 0.0
 42
1.0
  0
SEQEND
  8
0
  0
POLYLINE
  8
0
 66
      1
 70
0
 40
0.0120
 41
0.0120
  0
VERTEX
  8
0
 10
0.3090
 20
0.2420
 30
 0.0
  0
VERTEX
  8
0
 10
0.3090
 20
0.0060
 30
 0.0
  0
SEQEND
  8
0
  0
POLYLINE
  8
0
 66
      1
 70
1
 40
0.0060
 41
0.0060
  0
VERTEX
  8
0
 10
0.3060
 20
0.2420
 30
 0.0
 42
1.0
  0
VERTEX
  8
0
 10
0.3120
 20
0.2420
 30
 0.0
 42
1.0
  0
SEQEND
  8
0
  0
POLYLINE
  8
0
 66
      1
 70
1
 40
0.0060
 41
0.0060
  0
VERTEX
  8
0
 10
0.3060
 20
0.0060
 30
 0.0
 42
1.0
  0
VERTEX
  8
0
 10
0.3120
 20
0.0060
 30
 0.0
 42
1.0
  0
SEQEND
  8
0
  0
POLYLINE
  8
0
 66
      1
 70
0
 40
0.0120
 41
0.0120
  0
VERTEX
  8
0
 10
2.3760
 20
0.1040
 30
 0.0
  0
VERTEX
  8
0
 10
2.4350
 20
0.1240
 30
 0.0
  0
VERTEX
  8
0
 10
2.3760
 20
0.1440
 30
 0.0
  0
SEQEND
  8
0
  0
POLYLINE
  8
0
 66
      1
 70
1
 40
0.0060
 41
0.0060
  0
VERTEX
  8
0
 10
2.3730
 20
0.1040
 30
 0.0
 42
1.0
  0
VERTEX
  8
0
 10
2.3790
 20
0.1040
 30
 0.0
 42
1.0
  0
SEQEND
  8
0
  0
POLYLINE
  8
0
 66
      1
 70
1
 40
0.0060
 41
0.0060
  0
VERTEX
  8
0
 10
2.4320
 20
0.1240
 30
 0.0
 42
1.0
  0
VERTEX
  8
0
 10
2.4380
 20
0.1240
 30
 0.0
 42
1.0
  0
SEQEND
  8
0
  0
POLYLINE
  8
0
 66
      1
 70
1
 40
0.0060
 41
0.0060
  0
VERTEX
  8
0
 10
2.3730
 20
0.1440
 30
 0.0
 42
1.0
  0
VERTEX
  8
0
 10
2.3790
 20
0.1440
 30
 0.0
 42
1.0
  0
SEQEND
  8
0
  0
POLYLINE
  8
0
 66
      1
 70
0
 40
0.0120
 41
0.0120
  0
VERTEX
  8
0
 10
2.4350
 20
0.1240
 30
 0.0
  0
VERTEX
  8
0
 10
1.5660
 20
0.1240
 30
 0.0
  0
SEQEND
  8
0
  0
POLYLINE
  8
0
 66
      1
 70
1
 40
0.0060
 41
0.0060
  0
VERTEX
  8
0
 10
2.4320
 20
0.1240
 30
 0.0
 42
1.0
  0
VERTEX
  8
0
 10
2.4380
 20
0.1240
 30
 0.0
 42
1.0
  0
SEQEND
  8
0
  0
POLYLINE
  8
0
 66
      1
 70
1
 40
0.0060
 41
0.0060
  0
VERTEX
  8
0
 10
1.5630
 20
0.1240
 30
 0.0
 42
1.0
  0
VERTEX
  8
0
 10
1.5690
 20
0.1240
 30
 0.0
 42
1.0
  0
SEQEND
  8
0
  0
POLYLINE
  8
0
 66
      1
 70
0
 40
0.0120
 41
0.0120
  0
VERTEX
  8
0
 10
2.4350
 20
0.2420
 30
 0.0
  0
VERTEX
  8
0
 10
2.4350
 20
0.0060
 30
 0.0
  0
SEQEND
  8
0
  0
POLYLINE
  8
0
 66
      1
 70
1
 40
0.0060
 41
0.0060
  0
VERTEX
  8
0
 10
2.4320
 20
0.2420
 30
 0.0
 42
1.0
  0
VERTEX
  8
0
 10
2.4380
 20
0.2420
 30
 0.0
 42
1.0
  0
SEQEND
  8
0
  0
POLYLINE
  8
0
 66
      1
 70
1
 40
0.0060
 41
0.0060
  0
VERTEX
  8
0
 10
2.4320
 20
0.0060
 30
 0.0
 42
1.0
  0
VERTEX
  8
0
 10
2.4380
 20
0.0060
 30
 0.0
 42
1.0
  0
SEQEND
  8
0
  0
POLYLINE
  8
0
 66
      1
 70
0
 40
0.0120
 41
0.0120
  0
VERTEX
  8
0
 10
0.1440
 20
1.5290
 30
 0.0
  0
VERTEX
  8
0
 10
0.1240
 20
1.5880
 30
 0.0
  0
VERTEX
  8
0
 10
0.1040
 20
1.5290
 30
 0.0
  0
SEQEND
  8
0
  0
POLYLINE
  8
0
 66
      1
 70
1
 40
0.0060
 41
0.0060
  0
VERTEX
  8
0
 10
0.1410
 20
1.5290
 30
 0.0
 42
1.0
  0
VERTEX
  8
0
 10
0.1470
 20
1.5290
 30
 0.0
 42
1.0
  0
SEQEND
  8
0
  0
POLYLINE
  8
0
 66
      1
 70
1
 40
0.0060
 41
0.0060
  0
VERTEX
  8
0
 10
0.1210
 20
1.5880
 30
 0.0
 42
1.0
  0
VERTEX
  8
0
 10
0.1270
 20
1.5880
 30
 0.0
 42
1.0
  0
SEQEND
  8
0
  0
POLYLINE
  8
0
 66
      1
 70
1
 40
0.0060
 41
0.0060
  0
VERTEX
  8
0
 10
0.1010
 20
1.5290
 30
 0.0
 42
1.0
  0
VERTEX
  8
0
 10
0.1070
 20
1.5290
 30
 0.0
 42
1.0
  0
SEQEND
  8
0
  0
POLYLINE
  8
0
 66
      1
 70
0
 40
0.0120
 41
0.0120
  0
VERTEX
  8
0
 10
0.1240
 20
1.5880
 30
 0.0
  0
VERTEX
  8
0
 10
0.1240
 20
1.1330
 30
 0.0
  0
SEQEND
  8
0
  0
POLYLINE
  8
0
 66
      1
 70
1
 40
0.0060
 41
0.0060
  0
VERTEX
  8
0
 10
0.1210
 20
1.5880
 30
 0.0
 42
1.0
  0
VERTEX
  8
0
 10
0.1270
 20
1.5880
 30
 0.0
 42
1.0
  0
SEQEND
  8
0
  0
POLYLINE
  8
0
 66
      1
 70
1
 40
0.0060
 41
0.0060
  0
VERTEX
  8
0
 10
0.1210
 20
1.1330
 30
 0.0
 42
1.0
  0
VERTEX
  8
0
 10
0.1270
 20
1.1330
 30
 0.0
 42
1.0
  0
SEQEND
  8
0
  0
POLYLINE
  8
0
 66
      1
 70
0
 40
0.0120
 41
0.0120
  0
VERTEX
  8
0
 10
0.0060
 20
1.5880
 30
 0.0
  0
VERTEX
  8
0
 10
0.2420
 20
1.5880
 30
 0.0
  0
SEQEND
  8
0
  0
POLYLINE
  8
0
 66
      1
 70
1
 40
0.0060
 41
0.0060
  0
VERTEX
  8
0
 10
0.0030
 20
1.5880
 30
 0.0
 42
1.0
  0
VERTEX
  8
0
 10
0.0090
 20
1.5880
 30
 0.0
 42
1.0
  0
SEQEND
  8
0
  0
POLYLINE
  8
0
 66
      1
 70
1
 40
0.0060
 41
0.0060
  0
VERTEX
  8
0
 10
0.2390
 20
1.5880
 30
 0.0
 42
1.0
  0
VERTEX
  8
0
 10
0.2450
 20
1.5880
 30
 0.0
 42
1.0
  0
SEQEND
  8
0
  0
POLYLINE
  8
0
 66
      1
 70
0
 40
0.0120
 41
0.0120
  0
VERTEX
  8
0
 10
0.1040
 20
0.3510
 30
 0.0
  0
VERTEX
  8
0
 10
0.1240
 20
0.2920
 30
 0.0
  0
VERTEX
  8
0
 10
0.1440
 20
0.3510
 30
 0.0
  0
SEQEND
  8
0
  0
POLYLINE
  8
0
 66
      1
 70
1
 40
0.0060
 41
0.0060
  0
VERTEX
  8
0
 10
0.1010
 20
0.3510
 30
 0.0
 42
1.0
  0
VERTEX
  8
0
 10
0.1070
 20
0.3510
 30
 0.0
 42
1.0
  0
SEQEND
  8
0
  0
POLYLINE
  8
0
 66
      1
 70
1
 40
0.0060
 41
0.0060
  0
VERTEX
  8
0
 10
0.1210
 20
0.2920
 30
 0.0
 42
1.0
  0
VERTEX
  8
0
 10
0.1270
 20
0.2920
 30
 0.0
 42
1.0
  0
SEQEND
  8
0
  0
POLYLINE
  8
0
 66
      1
 70
1
 40
0.0060
 41
0.0060
  0
VERTEX
  8
0
 10
0.1410
 20
0.3510
 30
 0.0
 42
1.0
  0
VERTEX
  8
0
 10
0.1470
 20
0.3510
 30
 0.0
 42
1.0
  0
SEQEND
  8
0
  0
POLYLINE
  8
0
 66
      1
 70
0
 40
0.0120
 41
0.0120
  0
VERTEX
  8
0
 10
0.1240
 20
0.2920
 30
 0.0
  0
VERTEX
  8
0
 10
0.1240
 20
0.7460
 30
 0.0
  0
SEQEND
  8
0
  0
POLYLINE
  8
0
 66
      1
 70
1
 40
0.0060
 41
0.0060
  0
VERTEX
  8
0
 10
0.1210
 20
0.2920
 30
 0.0
 42
1.0
  0
VERTEX
  8
0
 10
0.1270
 20
0.2920
 30
 0.0
 42
1.0
  0
SEQEND
  8
0
  0
POLYLINE
  8
0
 66
      1
 70
1
 40
0.0060
 41
0.0060
  0
VERTEX
  8
0
 10
0.1210
 20
0.7460
 30
 0.0
 42
1.0
  0
VERTEX
  8
0
 10
0.1270
 20
0.7460
 30
 0.0
 42
1.0
  0
SEQEND
  8
0
  0
POLYLINE
  8
0
 66
      1
 70
0
 40
0.0120
 41
0.0120
  0
VERTEX
  8
0
 10
0.0060
 20
0.2920
 30
 0.0
  0
VERTEX
  8
0
 10
0.2420
 20
0.2920
 30
 0.0
  0
SEQEND
  8
0
  0
POLYLINE
  8
0
 66
      1
 70
1
 40
0.0060
 41
0.0060
  0
VERTEX
  8
0
 10
0.0030
 20
0.2920
 30
 0.0
 42
1.0
  0
VERTEX
  8
0
 10
0.0090
 20
0.2920
 30
 0.0
 42
1.0
  0
SEQEND
  8
0
  0
POLYLINE
  8
0
 66
      1
 70
1
 40
0.0060
 41
0.0060
  0
VERTEX
  8
0
 10
0.2390
 20
0.2920
 30
 0.0
 42
1.0
  0
VERTEX
  8
0
 10
0.2450
 20
0.2920
 30
 0.0
 42
1.0
  0
SEQEND
  8
0
  0
POLYLINE
  8
0
 66
      1
 70
0
 40
0.0120
 41
0.0120
  0
VERTEX
  8
0
 10
0.4050
 20
0.2390
 30
 0.0
  0
VERTEX
  8
0
 10
0.4640
 20
0.2580
 30
 0.0
  0
VERTEX
  8
0
 10
0.4050
 20
0.2780
 30
 0.0
  0
SEQEND
  8
0
  0
POLYLINE
  8
0
 66
      1
 70
1
 40
0.0060
 41
0.0060
  0
VERTEX
  8
0
 10
0.4020
 20
0.2390
 30
 0.0
 42
1.0
  0
VERTEX
  8
0
 10
0.4080
 20
0.2390
 30
 0.0
 42
1.0
  0
SEQEND
  8
0
  0
POLYLINE
  8
0
 66
      1
 70
1
 40
0.0060
 41
0.0060
  0
VERTEX
  8
0
 10
0.4610
 20
0.2580
 30
 0.0
 42
1.0
  0
VERTEX
  8
0
 10
0.4670
 20
0.2580
 30
 0.0
 42
1.0
  0
SEQEND
  8
0
  0
POLYLINE
  8
0
 66
      1
 70
1
 40
0.0060
 41
0.0060
  0
VERTEX
  8
0
 10
0.4020
 20
0.2780
 30
 0.0
 42
1.0
  0
VERTEX
  8
0
 10
0.4080
 20
0.2780
 30
 0.0
 42
1.0
  0
SEQEND
  8
0
  0
POLYLINE
  8
0
 66
      1
 70
0
 40
0.0120
 41
0.0120
  0
VERTEX
  8
0
 10
0.4640
 20
0.2580
 30
 0.0
  0
VERTEX
  8
0
 10
0.5450
 20
0.2580
 30
 0.0
  0
SEQEND
  8
0
  0
POLYLINE
  8
0
 66
      1
 70
1
 40
0.0060
 41
0.0060
  0
VERTEX
  8
0
 10
0.4610
 20
0.2580
 30
 0.0
 42
1.0
  0
VERTEX
  8
0
 10
0.4670
 20
0.2580
 30
 0.0
 42
1.0
  0
SEQEND
  8
0
  0
POLYLINE
  8
0
 66
      1
 70
1
 40
0.0060
 41
0.0060
  0
VERTEX
  8
0
 10
0.5420
 20
0.2580
 30
 0.0
 42
1.0
  0
VERTEX
  8
0
 10
0.5480
 20
0.2580
 30
 0.0
 42
1.0
  0
SEQEND
  8
0
  0
POLYLINE
  8
0
 66
      1
 70
0
 40
0.0120
 41
0.0120
  0
VERTEX
  8
0
 10
0.4640
 20
0.3760
 30
 0.0
  0
VERTEX
  8
0
 10
0.4640
 20
0.1400
 30
 0.0
  0
SEQEND
  8
0
  0
POLYLINE
  8
0
 66
      1
 70
1
 40
0.0060
 41
0.0060
  0
VERTEX
  8
0
 10
0.4610
 20
0.3760
 30
 0.0
 42
1.0
  0
VERTEX
  8
0
 10
0.4670
 20
0.3760
 30
 0.0
 42
1.0
  0
SEQEND
  8
0
  0
POLYLINE
  8
0
 66
      1
 70
1
 40
0.0060
 41
0.0060
  0
VERTEX
  8
0
 10
0.4610
 20
0.1400
 30
 0.0
 42
1.0
  0
VERTEX
  8
0
 10
0.4670
 20
0.1400
 30
 0.0
 42
1.0
  0
SEQEND
  8
0
  0
POLYLINE
  8
DRD
 66
      1
 70
0
 40
0.0100
 41
0.0100
  0
VERTEX
  8
DRD
 10
0.3080
 20
0.0300
 30
 0.0
  0
VERTEX
  8
DRD
 10
0.3080
 20
-1.1700
 30
 0.0
  0
SEQEND
  8
DRD
  0
POLYLINE
  8
DRD
 66
      1
 70
1
 40
0.0050
 41
0.0050
  0
VERTEX
  8
DRD
 10
0.3055
 20
0.0300
 30
 0.0
 42
1.0
  0
VERTEX
  8
DRD
 10
0.3105
 20
0.0300
 30
 0.0
 42
1.0
  0
SEQEND
  8
DRD
  0
POLYLINE
  8
DRD
 66
      1
 70
1
 40
0.0050
 41
0.0050
  0
VERTEX
  8
DRD
 10
0.3055
 20
-1.1700
 30
 0.0
 42
1.0
  0
VERTEX
  8
DRD
 10
0.3105
 20
-1.1700
 30
 0.0
 42
1.0
  0
SEQEND
  8
DRD
  0
POLYLINE
  8
DRD
 66
      1
 70
0
 40
0.0100
 41
0.0100
  0
VERTEX
  8
DRD
 10
0.3030
 20
0.0300
 30
 0.0
  0
VERTEX
  8
DRD
 10
0.3030
 20
-1.1700
 30
 0.0
  0
SEQEND
  8
DRD
  0
POLYLINE
  8
DRD
 66
      1
 70
1
 40
0.0050
 41
0.0050
  0
VERTEX
  8
DRD
 10
0.3005
 20
0.0300
 30
 0.0
 42
1.0
  0
VERTEX
  8
DRD
 10
0.3055
 20
0.0300
 30
 0.0
 42
1.0
  0
SEQEND
  8
DRD
  0
POLYLINE
  8
DRD
 66
      1
 70
1
 40
0.0050
 41
0.0050
  0
VERTEX
  8
DRD
 10
0.3005
 20
-1.1700
 30
 0.0
 42
1.0
  0
VERTEX
  8
DRD
 10
0.3055
 20
-1.1700
 30
 0.0
 42
1.0
  0
SEQEND
  8
DRD
  0
POLYLINE
  8
DRD
 66
      1
 70
0
 40
0.0100
 41
0.0100
  0
VERTEX
  8
DRD
 10
0.6730
 20
-0.1700
 30
 0.0
  0
VERTEX
  8
DRD
 10
0.6730
 20
-0.9700
 30
 0.0
  0
SEQEND
  8
DRD
  0
POLYLINE
  8
DRD
 66
      1
 70
1
 40
0.0050
 41
0.0050
  0
VERTEX
  8
DRD
 10
0.6705
 20
-0.1700
 30
 0.0
 42
1.0
  0
VERTEX
  8
DRD
 10
0.6755
 20
-0.1700
 30
 0.0
 42
1.0
  0
SEQEND
  8
DRD
  0
POLYLINE
  8
DRD
 66
      1
 70
1
 40
0.0050
 41
0.0050
  0
VERTEX
  8
DRD
 10
0.6705
 20
-0.9700
 30
 0.0
 42
1.0
  0
VERTEX
  8
DRD
 10
0.6755
 20
-0.9700
 30
 0.0
 42
1.0
  0
SEQEND
  8
DRD
  0
POLYLINE
  8
DRD
 66
      1
 70
0
 40
0.0100
 41
0.0100
  0
VERTEX
  8
DRD
 10
0.6780
 20
-0.1700
 30
 0.0
  0
VERTEX
  8
DRD
 10
0.6780
 20
-0.9700
 30
 0.0
  0
SEQEND
  8
DRD
  0
POLYLINE
  8
DRD
 66
      1
 70
1
 40
0.0050
 41
0.0050
  0
VERTEX
  8
DRD
 10
0.6755
 20
-0.1700
 30
 0.0
 42
1.0
  0
VERTEX
  8
DRD
 10
0.6805
 20
-0.1700
 30
 0.0
 42
1.0
  0
SEQEND
  8
DRD
  0
POLYLINE
  8
DRD
 66
      1
 70
1
 40
0.0050
 41
0.0050
  0
VERTEX
  8
DRD
 10
0.6755
 20
-0.9700
 30
 0.0
 42
1.0
  0
VERTEX
  8
DRD
 10
0.6805
 20
-0.9700
 30
 0.0
 42
1.0
  0
SEQEND
  8
DRD
  0
POLYLINE
  8
DRD
 66
      1
 70
0
 40
0.0100
 41
0.0100
  0
VERTEX
  8
DRD
 10
1.5170
 20
-0.1700
 30
 0.0
  0
VERTEX
  8
DRD
 10
1.5170
 20
-0.9700
 30
 0.0
  0
SEQEND
  8
DRD
  0
POLYLINE
  8
DRD
 66
      1
 70
1
 40
0.0050
 41
0.0050
  0
VERTEX
  8
DRD
 10
1.5145
 20
-0.1700
 30
 0.0
 42
1.0
  0
VERTEX
  8
DRD
 10
1.5195
 20
-0.1700
 30
 0.0
 42
1.0
  0
SEQEND
  8
DRD
  0
POLYLINE
  8
DRD
 66
      1
 70
1
 40
0.0050
 41
0.0050
  0
VERTEX
  8
DRD
 10
1.5145
 20
-0.9700
 30
 0.0
 42
1.0
  0
VERTEX
  8
DRD
 10
1.5195
 20
-0.9700
 30
 0.0
 42
1.0
  0
SEQEND
  8
DRD
  0
POLYLINE
  8
DRD
 66
      1
 70
0
 40
0.0100
 41
0.0100
  0
VERTEX
  8
DRD
 10
2.3240
 20
-0.1700
 30
 0.0
  0
VERTEX
  8
DRD
 10
2.3240
 20
-1.1700
 30
 0.0
  0
SEQEND
  8
DRD
  0
POLYLINE
  8
DRD
 66
      1
 70
1
 40
0.0050
 41
0.0050
  0
VERTEX
  8
DRD
 10
2.3215
 20
-0.1700
 30
 0.0
 42
1.0
  0
VERTEX
  8
DRD
 10
2.3265
 20
-0.1700
 30
 0.0
 42
1.0
  0
SEQEND
  8
DRD
  0
POLYLINE
  8
DRD
 66
      1
 70
1
 40
0.0050
 41
0.0050
  0
VERTEX
  8
DRD
 10
2.3215
 20
-1.1700
 30
 0.0
 42
1.0
  0
VERTEX
  8
DRD
 10
2.3265
 20
-1.1700
 30
 0.0
 42
1.0
  0
SEQEND
  8
DRD
  0
POLYLINE
  8
DRD
 66
      1
 70
0
 40
0.0100
 41
0.0100
  0
VERTEX
  8
DRD
 10
2.8790
 20
-0.1700
 30
 0.0
  0
VERTEX
  8
DRD
 10
2.8790
 20
-1.1700
 30
 0.0
  0
SEQEND
  8
DRD
  0
POLYLINE
  8
DRD
 66
      1
 70
1
 40
0.0050
 41
0.0050
  0
VERTEX
  8
DRD
 10
2.8765
 20
-0.1700
 30
 0.0
 42
1.0
  0
VERTEX
  8
DRD
 10
2.8815
 20
-0.1700
 30
 0.0
 42
1.0
  0
SEQEND
  8
DRD
  0
POLYLINE
  8
DRD
 66
      1
 70
1
 40
0.0050
 41
0.0050
  0
VERTEX
  8
DRD
 10
2.8765
 20
-1.1700
 30
 0.0
 42
1.0
  0
VERTEX
  8
DRD
 10
2.8815
 20
-1.1700
 30
 0.0
 42
1.0
  0
SEQEND
  8
DRD
  0
POLYLINE
  8
DRD
 66
      1
 70
0
 40
0.0100
 41
0.0100
  0
VERTEX
  8
DRD
 10
4.0330
 20
0.0300
 30
 0.0
  0
VERTEX
  8
DRD
 10
4.0330
 20
-1.1700
 30
 0.0
  0
SEQEND
  8
DRD
  0
POLYLINE
  8
DRD
 66
      1
 70
1
 40
0.0050
 41
0.0050
  0
VERTEX
  8
DRD
 10
4.0305
 20
0.0300
 30
 0.0
 42
1.0
  0
VERTEX
  8
DRD
 10
4.0355
 20
0.0300
 30
 0.0
 42
1.0
  0
SEQEND
  8
DRD
  0
POLYLINE
  8
DRD
 66
      1
 70
1
 40
0.0050
 41
0.0050
  0
VERTEX
  8
DRD
 10
4.0305
 20
-1.1700
 30
 0.0
 42
1.0
  0
VERTEX
  8
DRD
 10
4.0355
 20
-1.1700
 30
 0.0
 42
1.0
  0
SEQEND
  8
DRD
  0
POLYLINE
  8
DRD
 66
      1
 70
0
 40
0.0100
 41
0.0100
  0
VERTEX
  8
DRD
 10
4.0380
 20
0.0300
 30
 0.0
  0
VERTEX
  8
DRD
 10
4.0380
 20
-1.1700
 30
 0.0
  0
SEQEND
  8
DRD
  0
POLYLINE
  8
DRD
 66
      1
 70
1
 40
0.0050
 41
0.0050
  0
VERTEX
  8
DRD
 10
4.0355
 20
0.0300
 30
 0.0
 42
1.0
  0
VERTEX
  8
DRD
 10
4.0405
 20
0.0300
 30
 0.0
 42
1.0
  0
SEQEND
  8
DRD
  0
POLYLINE
  8
DRD
 66
      1
 70
1
 40
0.0050
 41
0.0050
  0
VERTEX
  8
DRD
 10
4.0355
 20
-1.1700
 30
 0.0
 42
1.0
  0
VERTEX
  8
DRD
 10
4.0405
 20
-1.1700
 30
 0.0
 42
1.0
  0
SEQEND
  8
DRD
  0
POLYLINE
  8
DRD
 66
      1
 70
0
 40
0.0100
 41
0.0100
  0
VERTEX
  8
DRD
 10
0.3030
 20
0.0350
 30
 0.0
  0
VERTEX
  8
DRD
 10
4.0380
 20
0.0350
 30
 0.0
  0
SEQEND
  8
DRD
  0
POLYLINE
  8
DRD
 66
      1
 70
1
 40
0.0050
 41
0.0050
  0
VERTEX
  8
DRD
 10
0.3005
 20
0.0350
 30
 0.0
 42
1.0
  0
VERTEX
  8
DRD
 10
0.3055
 20
0.0350
 30
 0.0
 42
1.0
  0
SEQEND
  8
DRD
  0
POLYLINE
  8
DRD
 66
      1
 70
1
 40
0.0050
 41
0.0050
  0
VERTEX
  8
DRD
 10
4.0355
 20
0.0350
 30
 0.0
 42
1.0
  0
VERTEX
  8
DRD
 10
4.0405
 20
0.0350
 30
 0.0
 42
1.0
  0
SEQEND
  8
DRD
  0
POLYLINE
  8
DRD
 66
      1
 70
0
 40
0.0100
 41
0.0100
  0
VERTEX
  8
DRD
 10
0.3080
 20
0.0300
 30
 0.0
  0
VERTEX
  8
DRD
 10
4.0330
 20
0.0300
 30
 0.0
  0
SEQEND
  8
DRD
  0
POLYLINE
  8
DRD
 66
      1
 70
1
 40
0.0050
 41
0.0050
  0
VERTEX
  8
DRD
 10
0.3055
 20
0.0300
 30
 0.0
 42
1.0
  0
VERTEX
  8
DRD
 10
0.3105
 20
0.0300
 30
 0.0
 42
1.0
  0
SEQEND
  8
DRD
  0
POLYLINE
  8
DRD
 66
      1
 70
1
 40
0.0050
 41
0.0050
  0
VERTEX
  8
DRD
 10
4.0305
 20
0.0300
 30
 0.0
 42
1.0
  0
VERTEX
  8
DRD
 10
4.0355
 20
0.0300
 30
 0.0
 42
1.0
  0
SEQEND
  8
DRD
  0
POLYLINE
  8
DRD
 66
      1
 70
0
 40
0.0100
 41
0.0100
  0
VERTEX
  8
DRD
 10
0.3080
 20
-0.1650
 30
 0.0
  0
VERTEX
  8
DRD
 10
4.0330
 20
-0.1650
 30
 0.0
  0
SEQEND
  8
DRD
  0
POLYLINE
  8
DRD
 66
      1
 70
1
 40
0.0050
 41
0.0050
  0
VERTEX
  8
DRD
 10
0.3055
 20
-0.1650
 30
 0.0
 42
1.0
  0
VERTEX
  8
DRD
 10
0.3105
 20
-0.1650
 30
 0.0
 42
1.0
  0
SEQEND
  8
DRD
  0
POLYLINE
  8
DRD
 66
      1
 70
1
 40
0.0050
 41
0.0050
  0
VERTEX
  8
DRD
 10
4.0305
 20
-0.1650
 30
 0.0
 42
1.0
  0
VERTEX
  8
DRD
 10
4.0355
 20
-0.1650
 30
 0.0
 42
1.0
  0
SEQEND
  8
DRD
  0
POLYLINE
  8
DRD
 66
      1
 70
0
 40
0.0100
 41
0.0100
  0
VERTEX
  8
DRD
 10
0.3080
 20
-0.1700
 30
 0.0
  0
VERTEX
  8
DRD
 10
4.0330
 20
-0.1700
 30
 0.0
  0
SEQEND
  8
DRD
  0
POLYLINE
  8
DRD
 66
      1
 70
1
 40
0.0050
 41
0.0050
  0
VERTEX
  8
DRD
 10
0.3055
 20
-0.1700
 30
 0.0
 42
1.0
  0
VERTEX
  8
DRD
 10
0.3105
 20
-0.1700
 30
 0.0
 42
1.0
  0
SEQEND
  8
DRD
  0
POLYLINE
  8
DRD
 66
      1
 70
1
 40
0.0050
 41
0.0050
  0
VERTEX
  8
DRD
 10
4.0305
 20
-0.1700
 30
 0.0
 42
1.0
  0
VERTEX
  8
DRD
 10
4.0355
 20
-0.1700
 30
 0.0
 42
1.0
  0
SEQEND
  8
DRD
  0
POLYLINE
  8
DRD
 66
      1
 70
0
 40
0.0100
 41
0.0100
  0
VERTEX
  8
DRD
 10
0.3080
 20
-0.3650
 30
 0.0
  0
VERTEX
  8
DRD
 10
4.0330
 20
-0.3650
 30
 0.0
  0
SEQEND
  8
DRD
  0
POLYLINE
  8
DRD
 66
      1
 70
1
 40
0.0050
 41
0.0050
  0
VERTEX
  8
DRD
 10
0.3055
 20
-0.3650
 30
 0.0
 42
1.0
  0
VERTEX
  8
DRD
 10
0.3105
 20
-0.3650
 30
 0.0
 42
1.0
  0
SEQEND
  8
DRD
  0
POLYLINE
  8
DRD
 66
      1
 70
1
 40
0.0050
 41
0.0050
  0
VERTEX
  8
DRD
 10
4.0305
 20
-0.3650
 30
 0.0
 42
1.0
  0
VERTEX
  8
DRD
 10
4.0355
 20
-0.3650
 30
 0.0
 42
1.0
  0
SEQEND
  8
DRD
  0
POLYLINE
  8
DRD
 66
      1
 70
0
 40
0.0100
 41
0.0100
  0
VERTEX
  8
DRD
 10
0.3080
 20
-0.3700
 30
 0.0
  0
VERTEX
  8
DRD
 10
4.0330
 20
-0.3700
 30
 0.0
  0
SEQEND
  8
DRD
  0
POLYLINE
  8
DRD
 66
      1
 70
1
 40
0.0050
 41
0.0050
  0
VERTEX
  8
DRD
 10
0.3055
 20
-0.3700
 30
 0.0
 42
1.0
  0
VERTEX
  8
DRD
 10
0.3105
 20
-0.3700
 30
 0.0
 42
1.0
  0
SEQEND
  8
DRD
  0
POLYLINE
  8
DRD
 66
      1
 70
1
 40
0.0050
 41
0.0050
  0
VERTEX
  8
DRD
 10
4.0305
 20
-0.3700
 30
 0.0
 42
1.0
  0
VERTEX
  8
DRD
 10
4.0355
 20
-0.3700
 30
 0.0
 42
1.0
  0
SEQEND
  8
DRD
  0
POLYLINE
  8
DRD
 66
      1
 70
0
 40
0.0100
 41
0.0100
  0
VERTEX
  8
DRD
 10
0.3080
 20
-0.5200
 30
 0.0
  0
VERTEX
  8
DRD
 10
4.0330
 20
-0.5200
 30
 0.0
  0
SEQEND
  8
DRD
  0
POLYLINE
  8
DRD
 66
      1
 70
1
 40
0.0050
 41
0.0050
  0
VERTEX
  8
DRD
 10
0.3055
 20
-0.5200
 30
 0.0
 42
1.0
  0
VERTEX
  8
DRD
 10
0.3105
 20
-0.5200
 30
 0.0
 42
1.0
  0
SEQEND
  8
DRD
  0
POLYLINE
  8
DRD
 66
      1
 70
1
 40
0.0050
 41
0.0050
  0
VERTEX
  8
DRD
 10
4.0305
 20
-0.5200
 30
 0.0
 42
1.0
  0
VERTEX
  8
DRD
 10
4.0355
 20
-0.5200
 30
 0.0
 42
1.0
  0
SEQEND
  8
DRD
  0
POLYLINE
  8
DRD
 66
      1
 70
0
 40
0.0100
 41
0.0100
  0
VERTEX
  8
DRD
 10
0.3080
 20
-0.6700
 30
 0.0
  0
VERTEX
  8
DRD
 10
4.0330
 20
-0.6700
 30
 0.0
  0
SEQEND
  8
DRD
  0
POLYLINE
  8
DRD
 66
      1
 70
1
 40
0.0050
 41
0.0050
  0
VERTEX
  8
DRD
 10
0.3055
 20
-0.6700
 30
 0.0
 42
1.0
  0
VERTEX
  8
DRD
 10
0.3105
 20
-0.6700
 30
 0.0
 42
1.0
  0
SEQEND
  8
DRD
  0
POLYLINE
  8
DRD
 66
      1
 70
1
 40
0.0050
 41
0.0050
  0
VERTEX
  8
DRD
 10
4.0305
 20
-0.6700
 30
 0.0
 42
1.0
  0
VERTEX
  8
DRD
 10
4.0355
 20
-0.6700
 30
 0.0
 42
1.0
  0
SEQEND
  8
DRD
  0
POLYLINE
  8
DRD
 66
      1
 70
0
 40
0.0100
 41
0.0100
  0
VERTEX
  8
DRD
 10
0.3080
 20
-0.8200
 30
 0.0
  0
VERTEX
  8
DRD
 10
4.0330
 20
-0.8200
 30
 0.0
  0
SEQEND
  8
DRD
  0
POLYLINE
  8
DRD
 66
      1
 70
1
 40
0.0050
 41
0.0050
  0
VERTEX
  8
DRD
 10
0.3055
 20
-0.8200
 30
 0.0
 42
1.0
  0
VERTEX
  8
DRD
 10
0.3105
 20
-0.8200
 30
 0.0
 42
1.0
  0
SEQEND
  8
DRD
  0
POLYLINE
  8
DRD
 66
      1
 70
1
 40
0.0050
 41
0.0050
  0
VERTEX
  8
DRD
 10
4.0305
 20
-0.8200
 30
 0.0
 42
1.0
  0
VERTEX
  8
DRD
 10
4.0355
 20
-0.8200
 30
 0.0
 42
1.0
  0
SEQEND
  8
DRD
  0
POLYLINE
  8
DRD
 66
      1
 70
0
 40
0.0100
 41
0.0100
  0
VERTEX
  8
DRD
 10
0.3080
 20
-0.9700
 30
 0.0
  0
VERTEX
  8
DRD
 10
4.0330
 20
-0.9700
 30
 0.0
  0
SEQEND
  8
DRD
  0
POLYLINE
  8
DRD
 66
      1
 70
1
 40
0.0050
 41
0.0050
  0
VERTEX
  8
DRD
 10
0.3055
 20
-0.9700
 30
 0.0
 42
1.0
  0
VERTEX
  8
DRD
 10
0.3105
 20
-0.9700
 30
 0.0
 42
1.0
  0
SEQEND
  8
DRD
  0
POLYLINE
  8
DRD
 66
      1
 70
1
 40
0.0050
 41
0.0050
  0
VERTEX
  8
DRD
 10
4.0305
 20
-0.9700
 30
 0.0
 42
1.0
  0
VERTEX
  8
DRD
 10
4.0355
 20
-0.9700
 30
 0.0
 42
1.0
  0
SEQEND
  8
DRD
  0
POLYLINE
  8
DRD
 66
      1
 70
0
 40
0.0100
 41
0.0100
  0
VERTEX
  8
DRD
 10
0.3080
 20
-1.1700
 30
 0.0
  0
VERTEX
  8
DRD
 10
4.0330
 20
-1.1700
 30
 0.0
  0
SEQEND
  8
DRD
  0
POLYLINE
  8
DRD
 66
      1
 70
1
 40
0.0050
 41
0.0050
  0
VERTEX
  8
DRD
 10
0.3055
 20
-1.1700
 30
 0.0
 42
1.0
  0
VERTEX
  8
DRD
 10
0.3105
 20
-1.1700
 30
 0.0
 42
1.0
  0
SEQEND
  8
DRD
  0
POLYLINE
  8
DRD
 66
      1
 70
1
 40
0.0050
 41
0.0050
  0
VERTEX
  8
DRD
 10
4.0305
 20
-1.1700
 30
 0.0
 42
1.0
  0
VERTEX
  8
DRD
 10
4.0355
 20
-1.1700
 30
 0.0
 42
1.0
  0
SEQEND
  8
DRD
  0
POLYLINE
  8
DRD
 66
      1
 70
0
 40
0.0100
 41
0.0100
  0
VERTEX
  8
DRD
 10
0.3030
 20
-1.1750
 30
 0.0
  0
VERTEX
  8
DRD
 10
4.0380
 20
-1.1750
 30
 0.0
  0
SEQEND
  8
DRD
  0
POLYLINE
  8
DRD
 66
      1
 70
1
 40
0.0050
 41
0.0050
  0
VERTEX
  8
DRD
 10
0.3005
 20
-1.1750
 30
 0.0
 42
1.0
  0
VERTEX
  8
DRD
 10
0.3055
 20
-1.1750
 30
 0.0
 42
1.0
  0
SEQEND
  8
DRD
  0
POLYLINE
  8
DRD
 66
      1
 70
1
 40
0.0050
 41
0.0050
  0
VERTEX
  8
DRD
 10
4.0355
 20
-1.1750
 30
 0.0
 42
1.0
  0
VERTEX
  8
DRD
 10
4.0405
 20
-1.1750
 30
 0.0
 42
1.0
  0
SEQEND
  8
DRD
  0
POLYLINE
  8
DRD
 66
      1
 70
0
 40
0.0100
 41
0.0100
  0
VERTEX
  8
DRD
 10
0.4900
 20
-0.4700
 30
 0.0
  0
VERTEX
  8
DRD
 10
0.4650
 20
-0.4450
 30
 0.0
  0
SEQEND
  8
DRD
  0
POLYLINE
  8
DRD
 66
      1
 70
1
 40
0.0050
 41
0.0050
  0
VERTEX
  8
DRD
 10
0.4875
 20
-0.4700
 30
 0.0
 42
1.0
  0
VERTEX
  8
DRD
 10
0.4925
 20
-0.4700
 30
 0.0
 42
1.0
  0
SEQEND
  8
DRD
  0
POLYLINE
  8
DRD
 66
      1
 70
1
 40
0.0050
 41
0.0050
  0
VERTEX
  8
DRD
 10
0.4625
 20
-0.4450
 30
 0.0
 42
1.0
  0
VERTEX
  8
DRD
 10
0.4675
 20
-0.4450
 30
 0.0
 42
1.0
  0
SEQEND
  8
DRD
  0
POLYLINE
  8
DRD
 66
      1
 70
0
 40
0.0100
 41
0.0100
  0
VERTEX
  8
DRD
 10
0.5150
 20
-0.4450
 30
 0.0
  0
VERTEX
  8
DRD
 10
0.4900
 20
-0.4700
 30
 0.0
  0
SEQEND
  8
DRD
  0
POLYLINE
  8
DRD
 66
      1
 70
1
 40
0.0050
 41
0.0050
  0
VERTEX
  8
DRD
 10
0.5125
 20
-0.4450
 30
 0.0
 42
1.0
  0
VERTEX
  8
DRD
 10
0.5175
 20
-0.4450
 30
 0.0
 42
1.0
  0
SEQEND
  8
DRD
  0
POLYLINE
  8
DRD
 66
      1
 70
1
 40
0.0050
 41
0.0050
  0
VERTEX
  8
DRD
 10
0.4875
 20
-0.4700
 30
 0.0
 42
1.0
  0
VERTEX
  8
DRD
 10
0.4925
 20
-0.4700
 30
 0.0
 42
1.0
  0
SEQEND
  8
DRD
  0
POLYLINE
  8
DRD
 66
      1
 70
0
 40
0.0100
 41
0.0100
  0
VERTEX
  8
DRD
 10
0.4900
 20
-0.4200
 30
 0.0
  0
VERTEX
  8
DRD
 10
0.5150
 20
-0.4450
 30
 0.0
  0
SEQEND
  8
DRD
  0
POLYLINE
  8
DRD
 66
      1
 70
1
 40
0.0050
 41
0.0050
  0
VERTEX
  8
DRD
 10
0.4875
 20
-0.4200
 30
 0.0
 42
1.0
  0
VERTEX
  8
DRD
 10
0.4925
 20
-0.4200
 30
 0.0
 42
1.0
  0
SEQEND
  8
DRD
  0
POLYLINE
  8
DRD
 66
      1
 70
1
 40
0.0050
 41
0.0050
  0
VERTEX
  8
DRD
 10
0.5125
 20
-0.4450
 30
 0.0
 42
1.0
  0
VERTEX
  8
DRD
 10
0.5175
 20
-0.4450
 30
 0.0
 42
1.0
  0
SEQEND
  8
DRD
  0
POLYLINE
  8
DRD
 66
      1
 70
0
 40
0.0100
 41
0.0100
  0
VERTEX
  8
DRD
 10
0.4650
 20
-0.4450
 30
 0.0
  0
VERTEX
  8
DRD
 10
0.4900
 20
-0.4200
 30
 0.0
  0
SEQEND
  8
DRD
  0
POLYLINE
  8
DRD
 66
      1
 70
1
 40
0.0050
 41
0.0050
  0
VERTEX
  8
DRD
 10
0.4625
 20
-0.4450
 30
 0.0
 42
1.0
  0
VERTEX
  8
DRD
 10
0.4675
 20
-0.4450
 30
 0.0
 42
1.0
  0
SEQEND
  8
DRD
  0
POLYLINE
  8
DRD
 66
      1
 70
1
 40
0.0050
 41
0.0050
  0
VERTEX
  8
DRD
 10
0.4875
 20
-0.4200
 30
 0.0
 42
1.0
  0
VERTEX
  8
DRD
 10
0.4925
 20
-0.4200
 30
 0.0
 42
1.0
  0
SEQEND
  8
DRD
  0
POLYLINE
  8
DRD
 66
      1
 70
0
 40
0.0100
 41
0.0100
  0
VERTEX
  8
DRD
 10
0.4650
 20
-0.5700
 30
 0.0
  0
VERTEX
  8
DRD
 10
0.5150
 20
-0.6200
 30
 0.0
  0
SEQEND
  8
DRD
  0
POLYLINE
  8
DRD
 66
      1
 70
1
 40
0.0050
 41
0.0050
  0
VERTEX
  8
DRD
 10
0.4625
 20
-0.5700
 30
 0.0
 42
1.0
  0
VERTEX
  8
DRD
 10
0.4675
 20
-0.5700
 30
 0.0
 42
1.0
  0
SEQEND
  8
DRD
  0
POLYLINE
  8
DRD
 66
      1
 70
1
 40
0.0050
 41
0.0050
  0
VERTEX
  8
DRD
 10
0.5125
 20
-0.6200
 30
 0.0
 42
1.0
  0
VERTEX
  8
DRD
 10
0.5175
 20
-0.6200
 30
 0.0
 42
1.0
  0
SEQEND
  8
DRD
  0
POLYLINE
  8
DRD
 66
      1
 70
0
 40
0.0100
 41
0.0100
  0
VERTEX
  8
DRD
 10
0.4650
 20
-0.6200
 30
 0.0
  0
VERTEX
  8
DRD
 10
0.5150
 20
-0.5700
 30
 0.0
  0
SEQEND
  8
DRD
  0
POLYLINE
  8
DRD
 66
      1
 70
1
 40
0.0050
 41
0.0050
  0
VERTEX
  8
DRD
 10
0.4625
 20
-0.6200
 30
 0.0
 42
1.0
  0
VERTEX
  8
DRD
 10
0.4675
 20
-0.6200
 30
 0.0
 42
1.0
  0
SEQEND
  8
DRD
  0
POLYLINE
  8
DRD
 66
      1
 70
1
 40
0.0050
 41
0.0050
  0
VERTEX
  8
DRD
 10
0.5125
 20
-0.5700
 30
 0.0
 42
1.0
  0
VERTEX
  8
DRD
 10
0.5175
 20
-0.5700
 30
 0.0
 42
1.0
  0
SEQEND
  8
DRD
  0
POLYLINE
  8
DRD
 66
      1
 70
0
 40
0.0100
 41
0.0100
  0
VERTEX
  8
DRD
 10
0.5150
 20
-0.6200
 30
 0.0
  0
VERTEX
  8
DRD
 10
0.4650
 20
-0.6200
 30
 0.0
  0
SEQEND
  8
DRD
  0
POLYLINE
  8
DRD
 66
      1
 70
1
 40
0.0050
 41
0.0050
  0
VERTEX
  8
DRD
 10
0.5125
 20
-0.6200
 30
 0.0
 42
1.0
  0
VERTEX
  8
DRD
 10
0.5175
 20
-0.6200
 30
 0.0
 42
1.0
  0
SEQEND
  8
DRD
  0
POLYLINE
  8
DRD
 66
      1
 70
1
 40
0.0050
 41
0.0050
  0
VERTEX
  8
DRD
 10
0.4625
 20
-0.6200
 30
 0.0
 42
1.0
  0
VERTEX
  8
DRD
 10
0.4675
 20
-0.6200
 30
 0.0
 42
1.0
  0
SEQEND
  8
DRD
  0
POLYLINE
  8
DRD
 66
      1
 70
0
 40
0.0100
 41
0.0100
  0
VERTEX
  8
DRD
 10
0.5150
 20
-0.5700
 30
 0.0
  0
VERTEX
  8
DRD
 10
0.5150
 20
-0.6200
 30
 0.0
  0
SEQEND
  8
DRD
  0
POLYLINE
  8
DRD
 66
      1
 70
1
 40
0.0050
 41
0.0050
  0
VERTEX
  8
DRD
 10
0.5125
 20
-0.5700
 30
 0.0
 42
1.0
  0
VERTEX
  8
DRD
 10
0.5175
 20
-0.5700
 30
 0.0
 42
1.0
  0
SEQEND
  8
DRD
  0
POLYLINE
  8
DRD
 66
      1
 70
1
 40
0.0050
 41
0.0050
  0
VERTEX
  8
DRD
 10
0.5125
 20
-0.6200
 30
 0.0
 42
1.0
  0
VERTEX
  8
DRD
 10
0.5175
 20
-0.6200
 30
 0.0
 42
1.0
  0
SEQEND
  8
DRD
  0
POLYLINE
  8
DRD
 66
      1
 70
0
 40
0.0100
 41
0.0100
  0
VERTEX
  8
DRD
 10
0.4650
 20
-0.5700
 30
 0.0
  0
VERTEX
  8
DRD
 10
0.5150
 20
-0.5700
 30
 0.0
  0
SEQEND
  8
DRD
  0
POLYLINE
  8
DRD
 66
      1
 70
1
 40
0.0050
 41
0.0050
  0
VERTEX
  8
DRD
 10
0.4625
 20
-0.5700
 30
 0.0
 42
1.0
  0
VERTEX
  8
DRD
 10
0.4675
 20
-0.5700
 30
 0.0
 42
1.0
  0
SEQEND
  8
DRD
  0
POLYLINE
  8
DRD
 66
      1
 70
1
 40
0.0050
 41
0.0050
  0
VERTEX
  8
DRD
 10
0.5125
 20
-0.5700
 30
 0.0
 42
1.0
  0
VERTEX
  8
DRD
 10
0.5175
 20
-0.5700
 30
 0.0
 42
1.0
  0
SEQEND
  8
DRD
  0
POLYLINE
  8
DRD
 66
      1
 70
0
 40
0.0100
 41
0.0100
  0
VERTEX
  8
DRD
 10
0.4650
 20
-0.6200
 30
 0.0
  0
VERTEX
  8
DRD
 10
0.4650
 20
-0.5700
 30
 0.0
  0
SEQEND
  8
DRD
  0
POLYLINE
  8
DRD
 66
      1
 70
1
 40
0.0050
 41
0.0050
  0
VERTEX
  8
DRD
 10
0.4625
 20
-0.6200
 30
 0.0
 42
1.0
  0
VERTEX
  8
DRD
 10
0.4675
 20
-0.6200
 30
 0.0
 42
1.0
  0
SEQEND
  8
DRD
  0
POLYLINE
  8
DRD
 66
      1
 70
1
 40
0.0050
 41
0.0050
  0
VERTEX
  8
DRD
 10
0.4625
 20
-0.5700
 30
 0.0
 42
1.0
  0
VERTEX
  8
DRD
 10
0.4675
 20
-0.5700
 30
 0.0
 42
1.0
  0
SEQEND
  8
DRD
  0
POLYLINE
  8
DRD
 66
      1
 70
0
 40
0.0100
 41
0.0100
  0
VERTEX
  8
DRD
 10
0.4900
 20
-0.7700
 30
 0.0
  0
VERTEX
  8
DRD
 10
0.4900
 20
-0.7200
 30
 0.0
  0
SEQEND
  8
DRD
  0
POLYLINE
  8
DRD
 66
      1
 70
1
 40
0.0050
 41
0.0050
  0
VERTEX
  8
DRD
 10
0.4875
 20
-0.7700
 30
 0.0
 42
1.0
  0
VERTEX
  8
DRD
 10
0.4925
 20
-0.7700
 30
 0.0
 42
1.0
  0
SEQEND
  8
DRD
  0
POLYLINE
  8
DRD
 66
      1
 70
1
 40
0.0050
 41
0.0050
  0
VERTEX
  8
DRD
 10
0.4875
 20
-0.7200
 30
 0.0
 42
1.0
  0
VERTEX
  8
DRD
 10
0.4925
 20
-0.7200
 30
 0.0
 42
1.0
  0
SEQEND
  8
DRD
  0
POLYLINE
  8
DRD
 66
      1
 70
0
 40
0.0100
 41
0.0100
  0
VERTEX
  8
DRD
 10
0.4650
 20
-0.7450
 30
 0.0
  0
VERTEX
  8
DRD
 10
0.5150
 20
-0.7450
 30
 0.0
  0
SEQEND
  8
DRD
  0
POLYLINE
  8
DRD
 66
      1
 70
1
 40
0.0050
 41
0.0050
  0
VERTEX
  8
DRD
 10
0.4625
 20
-0.7450
 30
 0.0
 42
1.0
  0
VERTEX
  8
DRD
 10
0.4675
 20
-0.7450
 30
 0.0
 42
1.0
  0
SEQEND
  8
DRD
  0
POLYLINE
  8
DRD
 66
      1
 70
1
 40
0.0050
 41
0.0050
  0
VERTEX
  8
DRD
 10
0.5125
 20
-0.7450
 30
 0.0
 42
1.0
  0
VERTEX
  8
DRD
 10
0.5175
 20
-0.7450
 30
 0.0
 42
1.0
  0
SEQEND
  8
DRD
  0
POLYLINE
  8
DRD
 66
      1
 70
0
 40
0.0100
 41
0.0100
  0
VERTEX
  8
DRD
 10
0.4900
 20
-0.9200
 30
 0.0
  0
VERTEX
  8
DRD
 10
0.4900
 20
-0.8700
 30
 0.0
  0
SEQEND
  8
DRD
  0
POLYLINE
  8
DRD
 66
      1
 70
1
 40
0.0050
 41
0.0050
  0
VERTEX
  8
DRD
 10
0.4875
 20
-0.9200
 30
 0.0
 42
1.0
  0
VERTEX
  8
DRD
 10
0.4925
 20
-0.9200
 30
 0.0
 42
1.0
  0
SEQEND
  8
DRD
  0
POLYLINE
  8
DRD
 66
      1
 70
1
 40
0.0050
 41
0.0050
  0
VERTEX
  8
DRD
 10
0.4875
 20
-0.8700
 30
 0.0
 42
1.0
  0
VERTEX
  8
DRD
 10
0.4925
 20
-0.8700
 30
 0.0
 42
1.0
  0
SEQEND
  8
DRD
  0
POLYLINE
  8
DRD
 66
      1
 70
0
 40
0.0100
 41
0.0100
  0
VERTEX
  8
DRD
 10
0.4650
 20
-0.8950
 30
 0.0
  0
VERTEX
  8
DRD
 10
0.5150
 20
-0.8950
 30
 0.0
  0
SEQEND
  8
DRD
  0
POLYLINE
  8
DRD
 66
      1
 70
1
 40
0.0050
 41
0.0050
  0
VERTEX
  8
DRD
 10
0.4625
 20
-0.8950
 30
 0.0
 42
1.0
  0
VERTEX
  8
DRD
 10
0.4675
 20
-0.8950
 30
 0.0
 42
1.0
  0
SEQEND
  8
DRD
  0
POLYLINE
  8
DRD
 66
      1
 70
1
 40
0.0050
 41
0.0050
  0
VERTEX
  8
DRD
 10
0.5125
 20
-0.8950
 30
 0.0
 42
1.0
  0
VERTEX
  8
DRD
 10
0.5175
 20
-0.8950
 30
 0.0
 42
1.0
  0
SEQEND
  8
DRD
  0
POLYLINE
  8
DRD
 66
      1
 70
0
 40
0.0100
 41
0.0100
  0
VERTEX
  8
DRD
 10
0.5150
 20
-0.9200
 30
 0.0
  0
VERTEX
  8
DRD
 10
0.4650
 20
-0.9200
 30
 0.0
  0
SEQEND
  8
DRD
  0
POLYLINE
  8
DRD
 66
      1
 70
1
 40
0.0050
 41
0.0050
  0
VERTEX
  8
DRD
 10
0.5125
 20
-0.9200
 30
 0.0
 42
1.0
  0
VERTEX
  8
DRD
 10
0.5175
 20
-0.9200
 30
 0.0
 42
1.0
  0
SEQEND
  8
DRD
  0
POLYLINE
  8
DRD
 66
      1
 70
1
 40
0.0050
 41
0.0050
  0
VERTEX
  8
DRD
 10
0.4625
 20
-0.9200
 30
 0.0
 42
1.0
  0
VERTEX
  8
DRD
 10
0.4675
 20
-0.9200
 30
 0.0
 42
1.0
  0
SEQEND
  8
DRD
  0
POLYLINE
  8
DRD
 66
      1
 70
0
 40
0.0100
 41
0.0100
  0
VERTEX
  8
DRD
 10
0.5150
 20
-0.8700
 30
 0.0
  0
VERTEX
  8
DRD
 10
0.5150
 20
-0.9200
 30
 0.0
  0
SEQEND
  8
DRD
  0
POLYLINE
  8
DRD
 66
      1
 70
1
 40
0.0050
 41
0.0050
  0
VERTEX
  8
DRD
 10
0.5125
 20
-0.8700
 30
 0.0
 42
1.0
  0
VERTEX
  8
DRD
 10
0.5175
 20
-0.8700
 30
 0.0
 42
1.0
  0
SEQEND
  8
DRD
  0
POLYLINE
  8
DRD
 66
      1
 70
1
 40
0.0050
 41
0.0050
  0
VERTEX
  8
DRD
 10
0.5125
 20
-0.9200
 30
 0.0
 42
1.0
  0
VERTEX
  8
DRD
 10
0.5175
 20
-0.9200
 30
 0.0
 42
1.0
  0
SEQEND
  8
DRD
  0
POLYLINE
  8
DRD
 66
      1
 70
0
 40
0.0100
 41
0.0100
  0
VERTEX
  8
DRD
 10
0.4650
 20
-0.8700
 30
 0.0
  0
VERTEX
  8
DRD
 10
0.5150
 20
-0.8700
 30
 0.0
  0
SEQEND
  8
DRD
  0
POLYLINE
  8
DRD
 66
      1
 70
1
 40
0.0050
 41
0.0050
  0
VERTEX
  8
DRD
 10
0.4625
 20
-0.8700
 30
 0.0
 42
1.0
  0
VERTEX
  8
DRD
 10
0.4675
 20
-0.8700
 30
 0.0
 42
1.0
  0
SEQEND
  8
DRD
  0
POLYLINE
  8
DRD
 66
      1
 70
1
 40
0.0050
 41
0.0050
  0
VERTEX
  8
DRD
 10
0.5125
 20
-0.8700
 30
 0.0
 42
1.0
  0
VERTEX
  8
DRD
 10
0.5175
 20
-0.8700
 30
 0.0
 42
1.0
  0
SEQEND
  8
DRD
  0
POLYLINE
  8
DRD
 66
      1
 70
0
 40
0.0100
 41
0.0100
  0
VERTEX
  8
DRD
 10
0.4650
 20
-0.9200
 30
 0.0
  0
VERTEX
  8
DRD
 10
0.4650
 20
-0.8700
 30
 0.0
  0
SEQEND
  8
DRD
  0
POLYLINE
  8
DRD
 66
      1
 70
1
 40
0.0050
 41
0.0050
  0
VERTEX
  8
DRD
 10
0.4625
 20
-0.9200
 30
 0.0
 42
1.0
  0
VERTEX
  8
DRD
 10
0.4675
 20
-0.9200
 30
 0.0
 42
1.0
  0
SEQEND
  8
DRD
  0
POLYLINE
  8
DRD
 66
      1
 70
1
 40
0.0050
 41
0.0050
  0
VERTEX
  8
DRD
 10
0.4625
 20
-0.8700
 30
 0.0
 42
1.0
  0
VERTEX
  8
DRD
 10
0.4675
 20
-0.8700
 30
 0.0
 42
1.0
  0
SEQEND
  8
DRD
  0
POLYLINE
  8
DRD
 66
      1
 70
0
 40
0.0100
 41
0.0100
  0
VERTEX
  8
DRD
 10
1.5270
 20
0.9720
 30
 0.0
  0
VERTEX
  8
DRD
 10
1.5020
 20
0.9970
 30
 0.0
  0
SEQEND
  8
DRD
  0
POLYLINE
  8
DRD
 66
      1
 70
1
 40
0.0050
 41
0.0050
  0
VERTEX
  8
DRD
 10
1.5245
 20
0.9720
 30
 0.0
 42
1.0
  0
VERTEX
  8
DRD
 10
1.5295
 20
0.9720
 30
 0.0
 42
1.0
  0
SEQEND
  8
DRD
  0
POLYLINE
  8
DRD
 66
      1
 70
1
 40
0.0050
 41
0.0050
  0
VERTEX
  8
DRD
 10
1.4995
 20
0.9970
 30
 0.0
 42
1.0
  0
VERTEX
  8
DRD
 10
1.5045
 20
0.9970
 30
 0.0
 42
1.0
  0
SEQEND
  8
DRD
  0
POLYLINE
  8
DRD
 66
      1
 70
0
 40
0.0100
 41
0.0100
  0
VERTEX
  8
DRD
 10
1.5520
 20
0.9970
 30
 0.0
  0
VERTEX
  8
DRD
 10
1.5270
 20
0.9720
 30
 0.0
  0
SEQEND
  8
DRD
  0
POLYLINE
  8
DRD
 66
      1
 70
1
 40
0.0050
 41
0.0050
  0
VERTEX
  8
DRD
 10
1.5495
 20
0.9970
 30
 0.0
 42
1.0
  0
VERTEX
  8
DRD
 10
1.5545
 20
0.9970
 30
 0.0
 42
1.0
  0
SEQEND
  8
DRD
  0
POLYLINE
  8
DRD
 66
      1
 70
1
 40
0.0050
 41
0.0050
  0
VERTEX
  8
DRD
 10
1.5245
 20
0.9720
 30
 0.0
 42
1.0
  0
VERTEX
  8
DRD
 10
1.5295
 20
0.9720
 30
 0.0
 42
1.0
  0
SEQEND
  8
DRD
  0
POLYLINE
  8
DRD
 66
      1
 70
0
 40
0.0100
 41
0.0100
  0
VERTEX
  8
DRD
 10
1.5270
 20
1.0220
 30
 0.0
  0
VERTEX
  8
DRD
 10
1.5520
 20
0.9970
 30
 0.0
  0
SEQEND
  8
DRD
  0
POLYLINE
  8
DRD
 66
      1
 70
1
 40
0.0050
 41
0.0050
  0
VERTEX
  8
DRD
 10
1.5245
 20
1.0220
 30
 0.0
 42
1.0
  0
VERTEX
  8
DRD
 10
1.5295
 20
1.0220
 30
 0.0
 42
1.0
  0
SEQEND
  8
DRD
  0
POLYLINE
  8
DRD
 66
      1
 70
1
 40
0.0050
 41
0.0050
  0
VERTEX
  8
DRD
 10
1.5495
 20
0.9970
 30
 0.0
 42
1.0
  0
VERTEX
  8
DRD
 10
1.5545
 20
0.9970
 30
 0.0
 42
1.0
  0
SEQEND
  8
DRD
  0
POLYLINE
  8
DRD
 66
      1
 70
0
 40
0.0100
 41
0.0100
  0
VERTEX
  8
DRD
 10
1.5020
 20
0.9970
 30
 0.0
  0
VERTEX
  8
DRD
 10
1.5270
 20
1.0220
 30
 0.0
  0
SEQEND
  8
DRD
  0
POLYLINE
  8
DRD
 66
      1
 70
1
 40
0.0050
 41
0.0050
  0
VERTEX
  8
DRD
 10
1.4995
 20
0.9970
 30
 0.0
 42
1.0
  0
VERTEX
  8
DRD
 10
1.5045
 20
0.9970
 30
 0.0
 42
1.0
  0
SEQEND
  8
DRD
  0
POLYLINE
  8
DRD
 66
      1
 70
1
 40
0.0050
 41
0.0050
  0
VERTEX
  8
DRD
 10
1.5245
 20
1.0220
 30
 0.0
 42
1.0
  0
VERTEX
  8
DRD
 10
1.5295
 20
1.0220
 30
 0.0
 42
1.0
  0
SEQEND
  8
DRD
  0
POLYLINE
  8
DRL
 66
      1
 70
1
 40
0.0090
 41
0.0090
  0
VERTEX
  8
DRL
 10
1.5230
 20
0.9970
 30
 0.0
 42
1.0
  0
VERTEX
  8
DRL
 10
1.5310
 20
0.9970
 30
 0.0
 42
1.0
  0
SEQEND
  8
DRL
  0
POLYLINE
  8
DRD
 66
      1
 70
0
 40
0.0100
 41
0.0100
  0
VERTEX
  8
DRD
 10
1.4530
 20
0.7590
 30
 0.0
  0
VERTEX
  8
DRD
 10
1.4280
 20
0.7840
 30
 0.0
  0
SEQEND
  8
DRD
  0
POLYLINE
  8
DRD
 66
      1
 70
1
 40
0.0050
 41
0.0050
  0
VERTEX
  8
DRD
 10
1.4505
 20
0.7590
 30
 0.0
 42
1.0
  0
VERTEX
  8
DRD
 10
1.4555
 20
0.7590
 30
 0.0
 42
1.0
  0
SEQEND
  8
DRD
  0
POLYLINE
  8
DRD
 66
      1
 70
1
 40
0.0050
 41
0.0050
  0
VERTEX
  8
DRD
 10
1.4255
 20
0.7840
 30
 0.0
 42
1.0
  0
VERTEX
  8
DRD
 10
1.4305
 20
0.7840
 30
 0.0
 42
1.0
  0
SEQEND
  8
DRD
  0
POLYLINE
  8
DRD
 66
      1
 70
0
 40
0.0100
 41
0.0100
  0
VERTEX
  8
DRD
 10
1.4780
 20
0.7840
 30
 0.0
  0
VERTEX
  8
DRD
 10
1.4530
 20
0.7590
 30
 0.0
  0
SEQEND
  8
DRD
  0
POLYLINE
  8
DRD
 66
      1
 70
1
 40
0.0050
 41
0.0050
  0
VERTEX
  8
DRD
 10
1.4755
 20
0.7840
 30
 0.0
 42
1.0
  0
VERTEX
  8
DRD
 10
1.4805
 20
0.7840
 30
 0.0
 42
1.0
  0
SEQEND
  8
DRD
  0
POLYLINE
  8
DRD
 66
      1
 70
1
 40
0.0050
 41
0.0050
  0
VERTEX
  8
DRD
 10
1.4505
 20
0.7590
 30
 0.0
 42
1.0
  0
VERTEX
  8
DRD
 10
1.4555
 20
0.7590
 30
 0.0
 42
1.0
  0
SEQEND
  8
DRD
  0
POLYLINE
  8
DRD
 66
      1
 70
0
 40
0.0100
 41
0.0100
  0
VERTEX
  8
DRD
 10
1.4530
 20
0.8090
 30
 0.0
  0
VERTEX
  8
DRD
 10
1.4780
 20
0.7840
 30
 0.0
  0
SEQEND
  8
DRD
  0
POLYLINE
  8
DRD
 66
      1
 70
1
 40
0.0050
 41
0.0050
  0
VERTEX
  8
DRD
 10
1.4505
 20
0.8090
 30
 0.0
 42
1.0
  0
VERTEX
  8
DRD
 10
1.4555
 20
0.8090
 30
 0.0
 42
1.0
  0
SEQEND
  8
DRD
  0
POLYLINE
  8
DRD
 66
      1
 70
1
 40
0.0050
 41
0.0050
  0
VERTEX
  8
DRD
 10
1.4755
 20
0.7840
 30
 0.0
 42
1.0
  0
VERTEX
  8
DRD
 10
1.4805
 20
0.7840
 30
 0.0
 42
1.0
  0
SEQEND
  8
DRD
  0
POLYLINE
  8
DRD
 66
      1
 70
0
 40
0.0100
 41
0.0100
  0
VERTEX
  8
DRD
 10
1.4280
 20
0.7840
 30
 0.0
  0
VERTEX
  8
DRD
 10
1.4530
 20
0.8090
 30
 0.0
  0
SEQEND
  8
DRD
  0
POLYLINE
  8
DRD
 66
      1
 70
1
 40
0.0050
 41
0.0050
  0
VERTEX
  8
DRD
 10
1.4255
 20
0.7840
 30
 0.0
 42
1.0
  0
VERTEX
  8
DRD
 10
1.4305
 20
0.7840
 30
 0.0
 42
1.0
  0
SEQEND
  8
DRD
  0
POLYLINE
  8
DRD
 66
      1
 70
1
 40
0.0050
 41
0.0050
  0
VERTEX
  8
DRD
 10
1.4505
 20
0.8090
 30
 0.0
 42
1.0
  0
VERTEX
  8
DRD
 10
1.4555
 20
0.8090
 30
 0.0
 42
1.0
  0
SEQEND
  8
DRD
  0
POLYLINE
  8
DRL
 66
      1
 70
1
 40
0.0090
 41
0.0090
  0
VERTEX
  8
DRL
 10
1.4490
 20
0.7840
 30
 0.0
 42
1.0
  0
VERTEX
  8
DRL
 10
1.4570
 20
0.7840
 30
 0.0
 42
1.0
  0
SEQEND
  8
DRL
  0
POLYLINE
  8
DRD
 66
      1
 70
0
 40
0.0100
 41
0.0100
  0
VERTEX
  8
DRD
 10
0.9560
 20
0.5160
 30
 0.0
  0
VERTEX
  8
DRD
 10
0.9310
 20
0.5410
 30
 0.0
  0
SEQEND
  8
DRD
  0
POLYLINE
  8
DRD
 66
      1
 70
1
 40
0.0050
 41
0.0050
  0
VERTEX
  8
DRD
 10
0.9535
 20
0.5160
 30
 0.0
 42
1.0
  0
VERTEX
  8
DRD
 10
0.9585
 20
0.5160
 30
 0.0
 42
1.0
  0
SEQEND
  8
DRD
  0
POLYLINE
  8
DRD
 66
      1
 70
1
 40
0.0050
 41
0.0050
  0
VERTEX
  8
DRD
 10
0.9285
 20
0.5410
 30
 0.0
 42
1.0
  0
VERTEX
  8
DRD
 10
0.9335
 20
0.5410
 30
 0.0
 42
1.0
  0
SEQEND
  8
DRD
  0
POLYLINE
  8
DRD
 66
      1
 70
0
 40
0.0100
 41
0.0100
  0
VERTEX
  8
DRD
 10
0.9810
 20
0.5410
 30
 0.0
  0
VERTEX
  8
DRD
 10
0.9560
 20
0.5160
 30
 0.0
  0
SEQEND
  8
DRD
  0
POLYLINE
  8
DRD
 66
      1
 70
1
 40
0.0050
 41
0.0050
  0
VERTEX
  8
DRD
 10
0.9785
 20
0.5410
 30
 0.0
 42
1.0
  0
VERTEX
  8
DRD
 10
0.9835
 20
0.5410
 30
 0.0
 42
1.0
  0
SEQEND
  8
DRD
  0
POLYLINE
  8
DRD
 66
      1
 70
1
 40
0.0050
 41
0.0050
  0
VERTEX
  8
DRD
 10
0.9535
 20
0.5160
 30
 0.0
 42
1.0
  0
VERTEX
  8
DRD
 10
0.9585
 20
0.5160
 30
 0.0
 42
1.0
  0
SEQEND
  8
DRD
  0
POLYLINE
  8
DRD
 66
      1
 70
0
 40
0.0100
 41
0.0100
  0
VERTEX
  8
DRD
 10
0.9560
 20
0.5660
 30
 0.0
  0
VERTEX
  8
DRD
 10
0.9810
 20
0.5410
 30
 0.0
  0
SEQEND
  8
DRD
  0
POLYLINE
  8
DRD
 66
      1
 70
1
 40
0.0050
 41
0.0050
  0
VERTEX
  8
DRD
 10
0.9535
 20
0.5660
 30
 0.0
 42
1.0
  0
VERTEX
  8
DRD
 10
0.9585
 20
0.5660
 30
 0.0
 42
1.0
  0
SEQEND
  8
DRD
  0
POLYLINE
  8
DRD
 66
      1
 70
1
 40
0.0050
 41
0.0050
  0
VERTEX
  8
DRD
 10
0.9785
 20
0.5410
 30
 0.0
 42
1.0
  0
VERTEX
  8
DRD
 10
0.9835
 20
0.5410
 30
 0.0
 42
1.0
  0
SEQEND
  8
DRD
  0
POLYLINE
  8
DRD
 66
      1
 70
0
 40
0.0100
 41
0.0100
  0
VERTEX
  8
DRD
 10
0.9310
 20
0.5410
 30
 0.0
  0
VERTEX
  8
DRD
 10
0.9560
 20
0.5660
 30
 0.0
  0
SEQEND
  8
DRD
  0
POLYLINE
  8
DRD
 66
      1
 70
1
 40
0.0050
 41
0.0050
  0
VERTEX
  8
DRD
 10
0.9285
 20
0.5410
 30
 0.0
 42
1.0
  0
VERTEX
  8
DRD
 10
0.9335
 20
0.5410
 30
 0.0
 42
1.0
  0
SEQEND
  8
DRD
  0
POLYLINE
  8
DRD
 66
      1
 70
1
 40
0.0050
 41
0.0050
  0
VERTEX
  8
DRD
 10
0.9535
 20
0.5660
 30
 0.0
 42
1.0
  0
VERTEX
  8
DRD
 10
0.9585
 20
0.5660
 30
 0.0
 42
1.0
  0
SEQEND
  8
DRD
  0
POLYLINE
  8
DRL
 66
      1
 70
1
 40
0.0090
 41
0.0090
  0
VERTEX
  8
DRL
 10
0.9520
 20
0.5410
 30
 0.0
 42
1.0
  0
VERTEX
  8
DRL
 10
0.9600
 20
0.5410
 30
 0.0
 42
1.0
  0
SEQEND
  8
DRL
  0
POLYLINE
  8
DRD
 66
      1
 70
0
 40
0.0100
 41
0.0100
  0
VERTEX
  8
DRD
 10
1.2530
 20
0.7210
 30
 0.0
  0
VERTEX
  8
DRD
 10
1.2280
 20
0.7460
 30
 0.0
  0
SEQEND
  8
DRD
  0
POLYLINE
  8
DRD
 66
      1
 70
1
 40
0.0050
 41
0.0050
  0
VERTEX
  8
DRD
 10
1.2505
 20
0.7210
 30
 0.0
 42
1.0
  0
VERTEX
  8
DRD
 10
1.2555
 20
0.7210
 30
 0.0
 42
1.0
  0
SEQEND
  8
DRD
  0
POLYLINE
  8
DRD
 66
      1
 70
1
 40
0.0050
 41
0.0050
  0
VERTEX
  8
DRD
 10
1.2255
 20
0.7460
 30
 0.0
 42
1.0
  0
VERTEX
  8
DRD
 10
1.2305
 20
0.7460
 30
 0.0
 42
1.0
  0
SEQEND
  8
DRD
  0
POLYLINE
  8
DRD
 66
      1
 70
0
 40
0.0100
 41
0.0100
  0
VERTEX
  8
DRD
 10
1.2780
 20
0.7460
 30
 0.0
  0
VERTEX
  8
DRD
 10
1.2530
 20
0.7210
 30
 0.0
  0
SEQEND
  8
DRD
  0
POLYLINE
  8
DRD
 66
      1
 70
1
 40
0.0050
 41
0.0050
  0
VERTEX
  8
DRD
 10
1.2755
 20
0.7460
 30
 0.0
 42
1.0
  0
VERTEX
  8
DRD
 10
1.2805
 20
0.7460
 30
 0.0
 42
1.0
  0
SEQEND
  8
DRD
  0
POLYLINE
  8
DRD
 66
      1
 70
1
 40
0.0050
 41
0.0050
  0
VERTEX
  8
DRD
 10
1.2505
 20
0.7210
 30
 0.0
 42
1.0
  0
VERTEX
  8
DRD
 10
1.2555
 20
0.7210
 30
 0.0
 42
1.0
  0
SEQEND
  8
DRD
  0
POLYLINE
  8
DRD
 66
      1
 70
0
 40
0.0100
 41
0.0100
  0
VERTEX
  8
DRD
 10
1.2530
 20
0.7710
 30
 0.0
  0
VERTEX
  8
DRD
 10
1.2780
 20
0.7460
 30
 0.0
  0
SEQEND
  8
DRD
  0
POLYLINE
  8
DRD
 66
      1
 70
1
 40
0.0050
 41
0.0050
  0
VERTEX
  8
DRD
 10
1.2505
 20
0.7710
 30
 0.0
 42
1.0
  0
VERTEX
  8
DRD
 10
1.2555
 20
0.7710
 30
 0.0
 42
1.0
  0
SEQEND
  8
DRD
  0
POLYLINE
  8
DRD
 66
      1
 70
1
 40
0.0050
 41
0.0050
  0
VERTEX
  8
DRD
 10
1.2755
 20
0.7460
 30
 0.0
 42
1.0
  0
VERTEX
  8
DRD
 10
1.2805
 20
0.7460
 30
 0.0
 42
1.0
  0
SEQEND
  8
DRD
  0
POLYLINE
  8
DRD
 66
      1
 70
0
 40
0.0100
 41
0.0100
  0
VERTEX
  8
DRD
 10
1.2280
 20
0.7460
 30
 0.0
  0
VERTEX
  8
DRD
 10
1.2530
 20
0.7710
 30
 0.0
  0
SEQEND
  8
DRD
  0
POLYLINE
  8
DRD
 66
      1
 70
1
 40
0.0050
 41
0.0050
  0
VERTEX
  8
DRD
 10
1.2255
 20
0.7460
 30
 0.0
 42
1.0
  0
VERTEX
  8
DRD
 10
1.2305
 20
0.7460
 30
 0.0
 42
1.0
  0
SEQEND
  8
DRD
  0
POLYLINE
  8
DRD
 66
      1
 70
1
 40
0.0050
 41
0.0050
  0
VERTEX
  8
DRD
 10
1.2505
 20
0.7710
 30
 0.0
 42
1.0
  0
VERTEX
  8
DRD
 10
1.2555
 20
0.7710
 30
 0.0
 42
1.0
  0
SEQEND
  8
DRD
  0
POLYLINE
  8
DRL
 66
      1
 70
1
 40
0.0090
 41
0.0090
  0
VERTEX
  8
DRL
 10
1.2490
 20
0.7460
 30
 0.0
 42
1.0
  0
VERTEX
  8
DRL
 10
1.2570
 20
0.7460
 30
 0.0
 42
1.0
  0
SEQEND
  8
DRL
  0
POLYLINE
  8
DRD
 66
      1
 70
0
 40
0.0100
 41
0.0100
  0
VERTEX
  8
DRD
 10
0.9300
 20
0.9400
 30
 0.0
  0
VERTEX
  8
DRD
 10
0.9050
 20
0.9650
 30
 0.0
  0
SEQEND
  8
DRD
  0
POLYLINE
  8
DRD
 66
      1
 70
1
 40
0.0050
 41
0.0050
  0
VERTEX
  8
DRD
 10
0.9275
 20
0.9400
 30
 0.0
 42
1.0
  0
VERTEX
  8
DRD
 10
0.9325
 20
0.9400
 30
 0.0
 42
1.0
  0
SEQEND
  8
DRD
  0
POLYLINE
  8
DRD
 66
      1
 70
1
 40
0.0050
 41
0.0050
  0
VERTEX
  8
DRD
 10
0.9025
 20
0.9650
 30
 0.0
 42
1.0
  0
VERTEX
  8
DRD
 10
0.9075
 20
0.9650
 30
 0.0
 42
1.0
  0
SEQEND
  8
DRD
  0
POLYLINE
  8
DRD
 66
      1
 70
0
 40
0.0100
 41
0.0100
  0
VERTEX
  8
DRD
 10
0.9550
 20
0.9650
 30
 0.0
  0
VERTEX
  8
DRD
 10
0.9300
 20
0.9400
 30
 0.0
  0
SEQEND
  8
DRD
  0
POLYLINE
  8
DRD
 66
      1
 70
1
 40
0.0050
 41
0.0050
  0
VERTEX
  8
DRD
 10
0.9525
 20
0.9650
 30
 0.0
 42
1.0
  0
VERTEX
  8
DRD
 10
0.9575
 20
0.9650
 30
 0.0
 42
1.0
  0
SEQEND
  8
DRD
  0
POLYLINE
  8
DRD
 66
      1
 70
1
 40
0.0050
 41
0.0050
  0
VERTEX
  8
DRD
 10
0.9275
 20
0.9400
 30
 0.0
 42
1.0
  0
VERTEX
  8
DRD
 10
0.9325
 20
0.9400
 30
 0.0
 42
1.0
  0
SEQEND
  8
DRD
  0
POLYLINE
  8
DRD
 66
      1
 70
0
 40
0.0100
 41
0.0100
  0
VERTEX
  8
DRD
 10
0.9300
 20
0.9900
 30
 0.0
  0
VERTEX
  8
DRD
 10
0.9550
 20
0.9650
 30
 0.0
  0
SEQEND
  8
DRD
  0
POLYLINE
  8
DRD
 66
      1
 70
1
 40
0.0050
 41
0.0050
  0
VERTEX
  8
DRD
 10
0.9275
 20
0.9900
 30
 0.0
 42
1.0
  0
VERTEX
  8
DRD
 10
0.9325
 20
0.9900
 30
 0.0
 42
1.0
  0
SEQEND
  8
DRD
  0
POLYLINE
  8
DRD
 66
      1
 70
1
 40
0.0050
 41
0.0050
  0
VERTEX
  8
DRD
 10
0.9525
 20
0.9650
 30
 0.0
 42
1.0
  0
VERTEX
  8
DRD
 10
0.9575
 20
0.9650
 30
 0.0
 42
1.0
  0
SEQEND
  8
DRD
  0
POLYLINE
  8
DRD
 66
      1
 70
0
 40
0.0100
 41
0.0100
  0
VERTEX
  8
DRD
 10
0.9050
 20
0.9650
 30
 0.0
  0
VERTEX
  8
DRD
 10
0.9300
 20
0.9900
 30
 0.0
  0
SEQEND
  8
DRD
  0
POLYLINE
  8
DRD
 66
      1
 70
1
 40
0.0050
 41
0.0050
  0
VERTEX
  8
DRD
 10
0.9025
 20
0.9650
 30
 0.0
 42
1.0
  0
VERTEX
  8
DRD
 10
0.9075
 20
0.9650
 30
 0.0
 42
1.0
  0
SEQEND
  8
DRD
  0
POLYLINE
  8
DRD
 66
      1
 70
1
 40
0.0050
 41
0.0050
  0
VERTEX
  8
DRD
 10
0.9275
 20
0.9900
 30
 0.0
 42
1.0
  0
VERTEX
  8
DRD
 10
0.9325
 20
0.9900
 30
 0.0
 42
1.0
  0
SEQEND
  8
DRD
  0
POLYLINE
  8
DRL
 66
      1
 70
1
 40
0.0090
 41
0.0090
  0
VERTEX
  8
DRL
 10
0.9260
 20
0.9650
 30
 0.0
 42
1.0
  0
VERTEX
  8
DRL
 10
0.9340
 20
0.9650
 30
 0.0
 42
1.0
  0
SEQEND
  8
DRL
  0
POLYLINE
  8
DRD
 66
      1
 70
0
 40
0.0100
 41
0.0100
  0
VERTEX
  8
DRD
 10
0.9300
 20
0.9400
 30
 0.0
  0
VERTEX
  8
DRD
 10
0.9050
 20
0.9650
 30
 0.0
  0
SEQEND
  8
DRD
  0
POLYLINE
  8
DRD
 66
      1
 70
1
 40
0.0050
 41
0.0050
  0
VERTEX
  8
DRD
 10
0.9275
 20
0.9400
 30
 0.0
 42
1.0
  0
VERTEX
  8
DRD
 10
0.9325
 20
0.9400
 30
 0.0
 42
1.0
  0
SEQEND
  8
DRD
  0
POLYLINE
  8
DRD
 66
      1
 70
1
 40
0.0050
 41
0.0050
  0
VERTEX
  8
DRD
 10
0.9025
 20
0.9650
 30
 0.0
 42
1.0
  0
VERTEX
  8
DRD
 10
0.9075
 20
0.9650
 30
 0.0
 42
1.0
  0
SEQEND
  8
DRD
  0
POLYLINE
  8
DRD
 66
      1
 70
0
 40
0.0100
 41
0.0100
  0
VERTEX
  8
DRD
 10
0.9550
 20
0.9650
 30
 0.0
  0
VERTEX
  8
DRD
 10
0.9300
 20
0.9400
 30
 0.0
  0
SEQEND
  8
DRD
  0
POLYLINE
  8
DRD
 66
      1
 70
1
 40
0.0050
 41
0.0050
  0
VERTEX
  8
DRD
 10
0.9525
 20
0.9650
 30
 0.0
 42
1.0
  0
VERTEX
  8
DRD
 10
0.9575
 20
0.9650
 30
 0.0
 42
1.0
  0
SEQEND
  8
DRD
  0
POLYLINE
  8
DRD
 66
      1
 70
1
 40
0.0050
 41
0.0050
  0
VERTEX
  8
DRD
 10
0.9275
 20
0.9400
 30
 0.0
 42
1.0
  0
VERTEX
  8
DRD
 10
0.9325
 20
0.9400
 30
 0.0
 42
1.0
  0
SEQEND
  8
DRD
  0
POLYLINE
  8
DRD
 66
      1
 70
0
 40
0.0100
 41
0.0100
  0
VERTEX
  8
DRD
 10
0.9300
 20
0.9900
 30
 0.0
  0
VERTEX
  8
DRD
 10
0.9550
 20
0.9650
 30
 0.0
  0
SEQEND
  8
DRD
  0
POLYLINE
  8
DRD
 66
      1
 70
1
 40
0.0050
 41
0.0050
  0
VERTEX
  8
DRD
 10
0.9275
 20
0.9900
 30
 0.0
 42
1.0
  0
VERTEX
  8
DRD
 10
0.9325
 20
0.9900
 30
 0.0
 42
1.0
  0
SEQEND
  8
DRD
  0
POLYLINE
  8
DRD
 66
      1
 70
1
 40
0.0050
 41
0.0050
  0
VERTEX
  8
DRD
 10
0.9525
 20
0.9650
 30
 0.0
 42
1.0
  0
VERTEX
  8
DRD
 10
0.9575
 20
0.9650
 30
 0.0
 42
1.0
  0
SEQEND
  8
DRD
  0
POLYLINE
  8
DRD
 66
      1
 70
0
 40
0.0100
 41
0.0100
  0
VERTEX
  8
DRD
 10
0.9050
 20
0.9650
 30
 0.0
  0
VERTEX
  8
DRD
 10
0.9300
 20
0.9900
 30
 0.0
  0
SEQEND
  8
DRD
  0
POLYLINE
  8
DRD
 66
      1
 70
1
 40
0.0050
 41
0.0050
  0
VERTEX
  8
DRD
 10
0.9025
 20
0.9650
 30
 0.0
 42
1.0
  0
VERTEX
  8
DRD
 10
0.9075
 20
0.9650
 30
 0.0
 42
1.0
  0
SEQEND
  8
DRD
  0
POLYLINE
  8
DRD
 66
      1
 70
1
 40
0.0050
 41
0.0050
  0
VERTEX
  8
DRD
 10
0.9275
 20
0.9900
 30
 0.0
 42
1.0
  0
VERTEX
  8
DRD
 10
0.9325
 20
0.9900
 30
 0.0
 42
1.0
  0
SEQEND
  8
DRD
  0
POLYLINE
  8
DRL
 66
      1
 70
1
 40
0.0090
 41
0.0090
  0
VERTEX
  8
DRL
 10
0.9260
 20
0.9650
 30
 0.0
 42
1.0
  0
VERTEX
  8
DRL
 10
0.9340
 20
0.9650
 30
 0.0
 42
1.0
  0
SEQEND
  8
DRL
  0
POLYLINE
  8
DRD
 66
      1
 70
0
 40
0.0100
 41
0.0100
  0
VERTEX
  8
DRD
 10
1.0630
 20
1.0960
 30
 0.0
  0
VERTEX
  8
DRD
 10
1.0380
 20
1.1210
 30
 0.0
  0
SEQEND
  8
DRD
  0
POLYLINE
  8
DRD
 66
      1
 70
1
 40
0.0050
 41
0.0050
  0
VERTEX
  8
DRD
 10
1.0605
 20
1.0960
 30
 0.0
 42
1.0
  0
VERTEX
  8
DRD
 10
1.0655
 20
1.0960
 30
 0.0
 42
1.0
  0
SEQEND
  8
DRD
  0
POLYLINE
  8
DRD
 66
      1
 70
1
 40
0.0050
 41
0.0050
  0
VERTEX
  8
DRD
 10
1.0355
 20
1.1210
 30
 0.0
 42
1.0
  0
VERTEX
  8
DRD
 10
1.0405
 20
1.1210
 30
 0.0
 42
1.0
  0
SEQEND
  8
DRD
  0
POLYLINE
  8
DRD
 66
      1
 70
0
 40
0.0100
 41
0.0100
  0
VERTEX
  8
DRD
 10
1.0880
 20
1.1210
 30
 0.0
  0
VERTEX
  8
DRD
 10
1.0630
 20
1.0960
 30
 0.0
  0
SEQEND
  8
DRD
  0
POLYLINE
  8
DRD
 66
      1
 70
1
 40
0.0050
 41
0.0050
  0
VERTEX
  8
DRD
 10
1.0855
 20
1.1210
 30
 0.0
 42
1.0
  0
VERTEX
  8
DRD
 10
1.0905
 20
1.1210
 30
 0.0
 42
1.0
  0
SEQEND
  8
DRD
  0
POLYLINE
  8
DRD
 66
      1
 70
1
 40
0.0050
 41
0.0050
  0
VERTEX
  8
DRD
 10
1.0605
 20
1.0960
 30
 0.0
 42
1.0
  0
VERTEX
  8
DRD
 10
1.0655
 20
1.0960
 30
 0.0
 42
1.0
  0
SEQEND
  8
DRD
  0
POLYLINE
  8
DRD
 66
      1
 70
0
 40
0.0100
 41
0.0100
  0
VERTEX
  8
DRD
 10
1.0630
 20
1.1460
 30
 0.0
  0
VERTEX
  8
DRD
 10
1.0880
 20
1.1210
 30
 0.0
  0
SEQEND
  8
DRD
  0
POLYLINE
  8
DRD
 66
      1
 70
1
 40
0.0050
 41
0.0050
  0
VERTEX
  8
DRD
 10
1.0605
 20
1.1460
 30
 0.0
 42
1.0
  0
VERTEX
  8
DRD
 10
1.0655
 20
1.1460
 30
 0.0
 42
1.0
  0
SEQEND
  8
DRD
  0
POLYLINE
  8
DRD
 66
      1
 70
1
 40
0.0050
 41
0.0050
  0
VERTEX
  8
DRD
 10
1.0855
 20
1.1210
 30
 0.0
 42
1.0
  0
VERTEX
  8
DRD
 10
1.0905
 20
1.1210
 30
 0.0
 42
1.0
  0
SEQEND
  8
DRD
  0
POLYLINE
  8
DRD
 66
      1
 70
0
 40
0.0100
 41
0.0100
  0
VERTEX
  8
DRD
 10
1.0380
 20
1.1210
 30
 0.0
  0
VERTEX
  8
DRD
 10
1.0630
 20
1.1460
 30
 0.0
  0
SEQEND
  8
DRD
  0
POLYLINE
  8
DRD
 66
      1
 70
1
 40
0.0050
 41
0.0050
  0
VERTEX
  8
DRD
 10
1.0355
 20
1.1210
 30
 0.0
 42
1.0
  0
VERTEX
  8
DRD
 10
1.0405
 20
1.1210
 30
 0.0
 42
1.0
  0
SEQEND
  8
DRD
  0
POLYLINE
  8
DRD
 66
      1
 70
1
 40
0.0050
 41
0.0050
  0
VERTEX
  8
DRD
 10
1.0605
 20
1.1460
 30
 0.0
 42
1.0
  0
VERTEX
  8
DRD
 10
1.0655
 20
1.1460
 30
 0.0
 42
1.0
  0
SEQEND
  8
DRD
  0
POLYLINE
  8
DRL
 66
      1
 70
1
 40
0.0090
 41
0.0090
  0
VERTEX
  8
DRL
 10
1.0590
 20
1.1210
 30
 0.0
 42
1.0
  0
VERTEX
  8
DRL
 10
1.0670
 20
1.1210
 30
 0.0
 42
1.0
  0
SEQEND
  8
DRL
  0
POLYLINE
  8
DRD
 66
      1
 70
0
 40
0.0100
 41
0.0100
  0
VERTEX
  8
DRD
 10
1.1370
 20
0.6220
 30
 0.0
  0
VERTEX
  8
DRD
 10
1.1120
 20
0.6470
 30
 0.0
  0
SEQEND
  8
DRD
  0
POLYLINE
  8
DRD
 66
      1
 70
1
 40
0.0050
 41
0.0050
  0
VERTEX
  8
DRD
 10
1.1345
 20
0.6220
 30
 0.0
 42
1.0
  0
VERTEX
  8
DRD
 10
1.1395
 20
0.6220
 30
 0.0
 42
1.0
  0
SEQEND
  8
DRD
  0
POLYLINE
  8
DRD
 66
      1
 70
1
 40
0.0050
 41
0.0050
  0
VERTEX
  8
DRD
 10
1.1095
 20
0.6470
 30
 0.0
 42
1.0
  0
VERTEX
  8
DRD
 10
1.1145
 20
0.6470
 30
 0.0
 42
1.0
  0
SEQEND
  8
DRD
  0
POLYLINE
  8
DRD
 66
      1
 70
0
 40
0.0100
 41
0.0100
  0
VERTEX
  8
DRD
 10
1.1620
 20
0.6470
 30
 0.0
  0
VERTEX
  8
DRD
 10
1.1370
 20
0.6220
 30
 0.0
  0
SEQEND
  8
DRD
  0
POLYLINE
  8
DRD
 66
      1
 70
1
 40
0.0050
 41
0.0050
  0
VERTEX
  8
DRD
 10
1.1595
 20
0.6470
 30
 0.0
 42
1.0
  0
VERTEX
  8
DRD
 10
1.1645
 20
0.6470
 30
 0.0
 42
1.0
  0
SEQEND
  8
DRD
  0
POLYLINE
  8
DRD
 66
      1
 70
1
 40
0.0050
 41
0.0050
  0
VERTEX
  8
DRD
 10
1.1345
 20
0.6220
 30
 0.0
 42
1.0
  0
VERTEX
  8
DRD
 10
1.1395
 20
0.6220
 30
 0.0
 42
1.0
  0
SEQEND
  8
DRD
  0
POLYLINE
  8
DRD
 66
      1
 70
0
 40
0.0100
 41
0.0100
  0
VERTEX
  8
DRD
 10
1.1370
 20
0.6720
 30
 0.0
  0
VERTEX
  8
DRD
 10
1.1620
 20
0.6470
 30
 0.0
  0
SEQEND
  8
DRD
  0
POLYLINE
  8
DRD
 66
      1
 70
1
 40
0.0050
 41
0.0050
  0
VERTEX
  8
DRD
 10
1.1345
 20
0.6720
 30
 0.0
 42
1.0
  0
VERTEX
  8
DRD
 10
1.1395
 20
0.6720
 30
 0.0
 42
1.0
  0
SEQEND
  8
DRD
  0
POLYLINE
  8
DRD
 66
      1
 70
1
 40
0.0050
 41
0.0050
  0
VERTEX
  8
DRD
 10
1.1595
 20
0.6470
 30
 0.0
 42
1.0
  0
VERTEX
  8
DRD
 10
1.1645
 20
0.6470
 30
 0.0
 42
1.0
  0
SEQEND
  8
DRD
  0
POLYLINE
  8
DRD
 66
      1
 70
0
 40
0.0100
 41
0.0100
  0
VERTEX
  8
DRD
 10
1.1120
 20
0.6470
 30
 0.0
  0
VERTEX
  8
DRD
 10
1.1370
 20
0.6720
 30
 0.0
  0
SEQEND
  8
DRD
  0
POLYLINE
  8
DRD
 66
      1
 70
1
 40
0.0050
 41
0.0050
  0
VERTEX
  8
DRD
 10
1.1095
 20
0.6470
 30
 0.0
 42
1.0
  0
VERTEX
  8
DRD
 10
1.1145
 20
0.6470
 30
 0.0
 42
1.0
  0
SEQEND
  8
DRD
  0
POLYLINE
  8
DRD
 66
      1
 70
1
 40
0.0050
 41
0.0050
  0
VERTEX
  8
DRD
 10
1.1345
 20
0.6720
 30
 0.0
 42
1.0
  0
VERTEX
  8
DRD
 10
1.1395
 20
0.6720
 30
 0.0
 42
1.0
  0
SEQEND
  8
DRD
  0
POLYLINE
  8
DRL
 66
      1
 70
1
 40
0.0090
 41
0.0090
  0
VERTEX
  8
DRL
 10
1.1330
 20
0.6470
 30
 0.0
 42
1.0
  0
VERTEX
  8
DRL
 10
1.1410
 20
0.6470
 30
 0.0
 42
1.0
  0
SEQEND
  8
DRL
  0
TEXT
  8
SST
 10
1.2190
 20
0.5080
 40
0.0500
 41
0.8000
  1
R3
 50
270.0000
  0
TEXT
  8
SST
 10
1.5550
 20
0.8990
 40
0.0500
 41
0.8000
  1
Q4
 50
360.0000
  0
TEXT
  8
SST
 10
1.5510
 20
0.4460
 40
0.0500
 41
0.8000
  1
Q5
 50
360.0000
  0
TEXT
  8
SST
 10
1.3530
 20
0.7430
 40
0.0500
 41
0.8000
  1
D3
 50
0.0000
  0
TEXT
  8
SST
 10
2.3540
 20
1.3150
 40
0.0500
 41
0.8000
  1
C9
 50
90.0000
  0
TEXT
  8
SST
 10
2.1990
 20
0.6030
 40
0.0500
 41
0.8000
  1
C13
 50
270.0000
  0
TEXT
  8
SST
 10
1.6790
 20
0.7830
 40
0.0500
 41
0.8000
  1
U2
 50
360.0000
  0
TEXT
  8
SST
 10
0.6200
 20
0.8170
 40
0.0500
 41
0.8000
  1
C6
 50
270.0000
  0
TEXT
  8
SST
 10
1.1450
 20
0.9740
 40
0.0500
 41
0.8000
  1
R4
 50
0.0000
  0
TEXT
  8
SST
 10
1.3600
 20
1.0210
 40
0.0500
 41
0.8000
  1
R5
 50
0.0000
  0
TEXT
  8
SST
 10
1.4060
 20
0.4510
 40
0.0500
 41
0.8000
  1
Q3
 50
360.0000
  0
TEXT
  8
SST
 10
1.2810
 20
0.5110
 40
0.0500
 41
0.8000
  1
R6
 50
270.0000
  0
TEXT
  8
SST
 10
1.1330
 20
0.6520
 40
0.0500
 41
0.8000
  1
C14
 50
0.0000
  0
TEXT
  8
SST
 10
1.3710
 20
0.9310
 40
0.0500
 41
0.8000
  1
U4
 50
360.0000
  0
TEXT
  8
SST
 10
0.7080
 20
0.5710
 40
0.0500
 41
0.8000
  1
R15
 50
360.0000
  0
TEXT
  8
SST
 10
0.8100
 20
0.5110
 40
0.0500
 41
0.8000
  1
R7
 50
270.0000
  0
TEXT
  8
SST
 10
1.3680
 20
0.8540
 40
0.0600
 41
0.8000
  1
CHG
 50
360.0000
  0
TEXT
  8
SST
 10
0.6200
 20
0.9860
 40
0.0500
 41
0.8000
  1
C4
 50
270.0000
  0
TEXT
  8
SST
 10
0.9700
 20
1.3030
 40
0.0500
 41
0.8000
  1
C1
 50
360.0000
  0
TEXT
  8
SST
 10
0.4220
 20
1.3490
 40
0.0600
 41
0.8000
  1
Vin +18V MAX
 50
0.0000
  0
TEXT
  8
SST
 10
1.6000
 20
1.2270
 40
0.0500
 41
0.8000
  1
C10
 50
270.0000
  0
TEXT
  8
SST
 10
0.4260
 20
1.1390
 40
0.0600
 41
0.8000
  1
GND
 50
0.0000
  0
TEXT
  8
SST
 10
0.4260
 20
0.9080
 40
0.0600
 41
0.8000
  1
BAT-
 50
0.0000
  0
TEXT
  8
SST
 10
0.8730
 20
0.5090
 40
0.0500
 41
0.8000
  1
R8
 50
270.0000
  0
TEXT
  8
SST
 10
0.4250
 20
0.6840
 40
0.0600
 41
0.8000
  1
BAT+
 50
0.0000
  0
TEXT
  8
SST
 10
2.3200
 20
0.8700
 40
0.0600
 41
0.8000
  1
Vout
 50
0.0000
  0
TEXT
  8
SST
 10
2.3350
 20
0.7370
 40
0.0600
 41
0.8000
  1
GND
 50
0.0000
  0
TEXT
  8
SST
 10
2.2080
 20
0.3830
 40
0.0500
 41
0.8000
  1
Q2
 50
360.0000
  0
TEXT
  8
SST
 10
0.8590
 20
0.9950
 40
0.0500
 41
0.8000
  1
R12
 50
270.0000
  0
TEXT
  8
SST
 10
0.7890
 20
0.3100
 40
0.0600
 41
0.8000
  1
picoUPS-100 (C) MINI-BOX.COM
 50
0.0000
  0
TEXT
  8
SST
 10
1.0440
 20
0.5080
 40
0.0500
 41
0.8000
  1
R10
 50
270.0000
  0
TEXT
  8
SST
 10
1.6060
 20
0.7800
 40
0.0500
 41
0.8000
  1
C12
 50
270.0000
  0
TEXT
  8
SST
 10
2.5350
 20
1.3160
 40
0.0500
 41
0.8000
  1
C7
 50
90.0000
  0
TEXT
  8
SST
 10
0.8590
 20
0.8890
 40
0.0500
 41
0.8000
  1
R13
 50
270.0000
  0
TEXT
  8
SST
 10
0.8640
 20
1.3030
 40
0.0500
 41
0.8000
  1
C2
 50
360.0000
  0
TEXT
  8
SST
 10
2.2020
 20
1.0600
 40
0.0500
 41
0.8000
  1
Q1
 50
360.0000
  0
TEXT
  8
SST
 10
0.9530
 20
0.8230
 40
0.0500
 41
0.8000
  1
R14
 50
0.0000
  0
TEXT
  8
SST
 10
0.8980
 20
0.7250
 40
0.0500
 41
0.8000
  1
D4
 50
0.0000
  0
TEXT
  8
SST
 10
0.9780
 20
0.5100
 40
0.0500
 41
0.8000
  1
R9
 50
270.0000
  0
TEXT
  8
SST
 10
2.4460
 20
1.3150
 40
0.0500
 41
0.8000
  1
C8
 50
90.0000
  0
TEXT
  8
SST
 10
1.8790
 20
1.2480
 40
0.0500
 41
0.8000
  1
U1
 50
360.0000
  0
TEXT
  8
SST
 10
0.6820
 20
1.2860
 40
0.0500
 41
0.8000
  1
U3
 50
0.0000
  0
TEXT
  8
SST
 10
2.2410
 20
1.2210
 40
0.0500
 41
0.8000
  1
C11
 50
270.0000
  0
TEXT
  8
SST
 10
0.6210
 20
0.9010
 40
0.0500
 41
0.8000
  1
C5
 50
270.0000
  0
TEXT
  8
SST
 10
1.1110
 20
0.5100
 40
0.0500
 41
0.8000
  1
R11
 50
270.0000
  0
TEXT
  8
SST
 10
2.1940
 20
1.2000
 40
0.0500
 41
0.8000
  1
R1
 50
270.0000
  0
TEXT
  8
SST
 10
2.0900
 20
0.6610
 40
0.0500
 41
0.8000
  1
R2
 50
360.0000
  0
TEXT
  8
SST
 10
2.1870
 20
1.6000
 40
0.0500
 41
0.8000
  1
C17
 50
360.0000
  0
TEXT
  8
SST
 10
1.5030
 20
0.7850
 40
0.0600
 41
0.8000
  1
BAT
 50
360.0000
  0
TEXT
  8
SST
 10
1.6350
 20
0.3780
 40
0.0500
 41
0.8000
  1
R17
 50
360.0000
  0
TEXT
  8
SST
 10
1.3680
 20
1.5910
 40
0.0500
 41
0.8000
  1
C15
 50
360.0000
  0
TEXT
  8
SST
 10
1.6280
 20
0.8470
 40
0.0500
 41
0.8000
  1
R16
 50
360.0000
  0
TEXT
  8
SST
 10
1.8080
 20
1.5930
 40
0.0500
 41
0.8000
  1
C16
 50
360.0000
  0
TEXT
  8
SST
 10
1.4190
 20
1.1330
 40
0.0600
 41
0.8000
  1
IN
 50
360.0000
  0
TEXT
  8
SST
 10
1.4460
 20
1.1170
 40
0.0500
 41
0.8000
  1
R18
 50
270.0000
  0
TEXT
  8
SST
 10
1.6360
 20
0.4180
 40
0.0500
 41
0.8000
  1
R19
 50
360.0000
  0
TEXT
  8
SST
 10
1.1260
 20
1.1940
 40
0.0500
 41
0.8000
  1
D1
 50
0.0000
  0
TEXT
  8
SST
 10
0.7640
 20
1.3040
 40
0.0500
 41
0.8000
  1
C3
 50
360.0000
  0
TEXT
  8
0
 10
0.3100
 20
0.5520
 40
0.0790
 41
0.8000
  1
3.91
 50
90.0000
  0
TEXT
  8
0
 10
1.2370
 20
0.0720
 40
0.0790
 41
0.8000
  1
54.00
 50
0.0000
  0
TEXT
  8
0
 10
0.1760
 20
0.8050
 40
0.0790
 41
0.8000
  1
32.92
 50
90.0000
  0
TEXT
  8
0
 10
0.5790
 20
0.1900
 40
0.0790
 41
0.8000
  1
3.91
 50
0.0000
  0
TEXT
  8
DRD
 10
1.6560
 20
-0.1450
 40
0.1500
 41
0.8000
  1
DRILL CHART
 50
0.0000
  0
TEXT
  8
DRD
 10
0.3580
 20
-0.3450
 40
0.1500
 41
0.8000
  1
SYM
 50
0.0000
  0
TEXT
  8
DRD
 10
0.9230
 20
-0.3450
 40
0.1500
 41
0.8000
  1
DIAM
 50
0.0000
  0
TEXT
  8
DRD
 10
1.7920
 20
-0.3450
 40
0.1500
 41
0.8000
  1
TOL
 50
0.0000
  0
TEXT
  8
DRD
 10
2.4690
 20
-0.3450
 40
0.1500
 41
0.8000
  1
QTY
 50
0.0000
  0
TEXT
  8
DRD
 10
3.2760
 20
-0.3450
 40
0.1500
 41
0.8000
  1
NOTE
 50
0.0000
  0
TEXT
  8
DRD
 10
0.8740
 20
-0.4950
 40
0.1000
 41
0.8000
  1
0.457 mm
 50
0.0000
  0
TEXT
  8
DRD
 10
2.6590
 20
-0.4950
 40
0.1000
 41
0.8000
  1
34
 50
0.0000
  0
TEXT
  8
DRD
 10
0.8740
 20
-0.6450
 40
0.1000
 41
0.8000
  1
0.864 mm
 50
0.0000
  0
TEXT
  8
DRD
 10
2.7290
 20
-0.6450
 40
0.1000
 41
0.8000
  1
6
 50
0.0000
  0
TEXT
  8
DRD
 10
0.8860
 20
-0.7950
 40
0.1000
 41
0.8000
  1
1.499 mm
 50
0.0000
  0
TEXT
  8
DRD
 10
2.6700
 20
-0.7950
 40
0.1000
 41
0.8000
  1
12
 50
0.0000
  0
TEXT
  8
DRD
 10
0.8860
 20
-0.9450
 40
0.1000
 41
0.8000
  1
3.175 mm
 50
0.0000
  0
TEXT
  8
DRD
 10
2.7290
 20
-0.9450
 40
0.1000
 41
0.8000
  1
4
 50
0.0000
  0
TEXT
  8
DRD
 10
1.0930
 20
-1.1450
 40
0.1500
 41
0.8000
  1
TOTAL
 50
0.0000
  0
TEXT
  8
DRD
 10
2.6090
 20
-1.1450
 40
0.1500
 41
0.8000
  1
56
 50
0.0000
  0
ENDSEC
  0
EOF
