  0
SECTION
  2
HEADER
  9
$ACADVER
  1
AC1009
  9
$LIMMIN
 10
5.325533333333334
 20
5.514733333333335
  9
$LIMMAX
 10
8.887450000000003
 20
7.991866666666669
  9
$GRIDMODE
 70
120
  9
$GRIDUNIT
 10
  0
 20
  0
  9
$SNAPMODE
 70
1
  9
$SNAPSTYLE
 70
0
  9
$SNAPUNIT
 10
0.001
 20
0.001
  9
$FILLMODE
 70
1
  9
$CECOLOR
 62
256
  0
ENDSEC
  0
SECTION
  2
ENTITIES
  0
POLYLINE
  8
DRD
 66
      1
 70
0
 40
0.0100
 41
0.0100
  0
VERTEX
  8
DRD
 10
2.7000
 20
0.5140
 30
 0.0
  0
VERTEX
  8
DRD
 10
2.7000
 20
0.5640
 30
 0.0
  0
SEQEND
  8
DRD
  0
POLYLINE
  8
DRD
 66
      1
 70
1
 40
0.0050
 41
0.0050
  0
VERTEX
  8
DRD
 10
2.6975
 20
0.5140
 30
 0.0
 42
1.0
  0
VERTEX
  8
DRD
 10
2.7025
 20
0.5140
 30
 0.0
 42
1.0
  0
SEQEND
  8
DRD
  0
POLYLINE
  8
DRD
 66
      1
 70
1
 40
0.0050
 41
0.0050
  0
VERTEX
  8
DRD
 10
2.6975
 20
0.5640
 30
 0.0
 42
1.0
  0
VERTEX
  8
DRD
 10
2.7025
 20
0.5640
 30
 0.0
 42
1.0
  0
SEQEND
  8
DRD
  0
POLYLINE
  8
DRD
 66
      1
 70
0
 40
0.0100
 41
0.0100
  0
VERTEX
  8
DRD
 10
2.6750
 20
0.5390
 30
 0.0
  0
VERTEX
  8
DRD
 10
2.7250
 20
0.5390
 30
 0.0
  0
SEQEND
  8
DRD
  0
POLYLINE
  8
DRD
 66
      1
 70
1
 40
0.0050
 41
0.0050
  0
VERTEX
  8
DRD
 10
2.6725
 20
0.5390
 30
 0.0
 42
1.0
  0
VERTEX
  8
DRD
 10
2.6775
 20
0.5390
 30
 0.0
 42
1.0
  0
SEQEND
  8
DRD
  0
POLYLINE
  8
DRD
 66
      1
 70
1
 40
0.0050
 41
0.0050
  0
VERTEX
  8
DRD
 10
2.7225
 20
0.5390
 30
 0.0
 42
1.0
  0
VERTEX
  8
DRD
 10
2.7275
 20
0.5390
 30
 0.0
 42
1.0
  0
SEQEND
  8
DRD
  0
POLYLINE
  8
DRD
 66
      1
 70
0
 40
0.0100
 41
0.0100
  0
VERTEX
  8
DRD
 10
2.7250
 20
0.5140
 30
 0.0
  0
VERTEX
  8
DRD
 10
2.6750
 20
0.5140
 30
 0.0
  0
SEQEND
  8
DRD
  0
POLYLINE
  8
DRD
 66
      1
 70
1
 40
0.0050
 41
0.0050
  0
VERTEX
  8
DRD
 10
2.7225
 20
0.5140
 30
 0.0
 42
1.0
  0
VERTEX
  8
DRD
 10
2.7275
 20
0.5140
 30
 0.0
 42
1.0
  0
SEQEND
  8
DRD
  0
POLYLINE
  8
DRD
 66
      1
 70
1
 40
0.0050
 41
0.0050
  0
VERTEX
  8
DRD
 10
2.6725
 20
0.5140
 30
 0.0
 42
1.0
  0
VERTEX
  8
DRD
 10
2.6775
 20
0.5140
 30
 0.0
 42
1.0
  0
SEQEND
  8
DRD
  0
POLYLINE
  8
DRD
 66
      1
 70
0
 40
0.0100
 41
0.0100
  0
VERTEX
  8
DRD
 10
2.7250
 20
0.5640
 30
 0.0
  0
VERTEX
  8
DRD
 10
2.7250
 20
0.5140
 30
 0.0
  0
SEQEND
  8
DRD
  0
POLYLINE
  8
DRD
 66
      1
 70
1
 40
0.0050
 41
0.0050
  0
VERTEX
  8
DRD
 10
2.7225
 20
0.5640
 30
 0.0
 42
1.0
  0
VERTEX
  8
DRD
 10
2.7275
 20
0.5640
 30
 0.0
 42
1.0
  0
SEQEND
  8
DRD
  0
POLYLINE
  8
DRD
 66
      1
 70
1
 40
0.0050
 41
0.0050
  0
VERTEX
  8
DRD
 10
2.7225
 20
0.5140
 30
 0.0
 42
1.0
  0
VERTEX
  8
DRD
 10
2.7275
 20
0.5140
 30
 0.0
 42
1.0
  0
SEQEND
  8
DRD
  0
POLYLINE
  8
DRD
 66
      1
 70
0
 40
0.0100
 41
0.0100
  0
VERTEX
  8
DRD
 10
2.6750
 20
0.5640
 30
 0.0
  0
VERTEX
  8
DRD
 10
2.7250
 20
0.5640
 30
 0.0
  0
SEQEND
  8
DRD
  0
POLYLINE
  8
DRD
 66
      1
 70
1
 40
0.0050
 41
0.0050
  0
VERTEX
  8
DRD
 10
2.6725
 20
0.5640
 30
 0.0
 42
1.0
  0
VERTEX
  8
DRD
 10
2.6775
 20
0.5640
 30
 0.0
 42
1.0
  0
SEQEND
  8
DRD
  0
POLYLINE
  8
DRD
 66
      1
 70
1
 40
0.0050
 41
0.0050
  0
VERTEX
  8
DRD
 10
2.7225
 20
0.5640
 30
 0.0
 42
1.0
  0
VERTEX
  8
DRD
 10
2.7275
 20
0.5640
 30
 0.0
 42
1.0
  0
SEQEND
  8
DRD
  0
POLYLINE
  8
DRD
 66
      1
 70
0
 40
0.0100
 41
0.0100
  0
VERTEX
  8
DRD
 10
2.6750
 20
0.5140
 30
 0.0
  0
VERTEX
  8
DRD
 10
2.6750
 20
0.5640
 30
 0.0
  0
SEQEND
  8
DRD
  0
POLYLINE
  8
DRD
 66
      1
 70
1
 40
0.0050
 41
0.0050
  0
VERTEX
  8
DRD
 10
2.6725
 20
0.5140
 30
 0.0
 42
1.0
  0
VERTEX
  8
DRD
 10
2.6775
 20
0.5140
 30
 0.0
 42
1.0
  0
SEQEND
  8
DRD
  0
POLYLINE
  8
DRD
 66
      1
 70
1
 40
0.0050
 41
0.0050
  0
VERTEX
  8
DRD
 10
2.6725
 20
0.5640
 30
 0.0
 42
1.0
  0
VERTEX
  8
DRD
 10
2.6775
 20
0.5640
 30
 0.0
 42
1.0
  0
SEQEND
  8
DRD
  0
POLYLINE
  8
DRD
 66
      1
 70
0
 40
0.0100
 41
0.0100
  0
VERTEX
  8
DRD
 10
0.7280
 20
0.5140
 30
 0.0
  0
VERTEX
  8
DRD
 10
0.7280
 20
0.5640
 30
 0.0
  0
SEQEND
  8
DRD
  0
POLYLINE
  8
DRD
 66
      1
 70
1
 40
0.0050
 41
0.0050
  0
VERTEX
  8
DRD
 10
0.7255
 20
0.5140
 30
 0.0
 42
1.0
  0
VERTEX
  8
DRD
 10
0.7305
 20
0.5140
 30
 0.0
 42
1.0
  0
SEQEND
  8
DRD
  0
POLYLINE
  8
DRD
 66
      1
 70
1
 40
0.0050
 41
0.0050
  0
VERTEX
  8
DRD
 10
0.7255
 20
0.5640
 30
 0.0
 42
1.0
  0
VERTEX
  8
DRD
 10
0.7305
 20
0.5640
 30
 0.0
 42
1.0
  0
SEQEND
  8
DRD
  0
POLYLINE
  8
DRD
 66
      1
 70
0
 40
0.0100
 41
0.0100
  0
VERTEX
  8
DRD
 10
0.7030
 20
0.5390
 30
 0.0
  0
VERTEX
  8
DRD
 10
0.7530
 20
0.5390
 30
 0.0
  0
SEQEND
  8
DRD
  0
POLYLINE
  8
DRD
 66
      1
 70
1
 40
0.0050
 41
0.0050
  0
VERTEX
  8
DRD
 10
0.7005
 20
0.5390
 30
 0.0
 42
1.0
  0
VERTEX
  8
DRD
 10
0.7055
 20
0.5390
 30
 0.0
 42
1.0
  0
SEQEND
  8
DRD
  0
POLYLINE
  8
DRD
 66
      1
 70
1
 40
0.0050
 41
0.0050
  0
VERTEX
  8
DRD
 10
0.7505
 20
0.5390
 30
 0.0
 42
1.0
  0
VERTEX
  8
DRD
 10
0.7555
 20
0.5390
 30
 0.0
 42
1.0
  0
SEQEND
  8
DRD
  0
POLYLINE
  8
DRD
 66
      1
 70
0
 40
0.0100
 41
0.0100
  0
VERTEX
  8
DRD
 10
0.7530
 20
0.5140
 30
 0.0
  0
VERTEX
  8
DRD
 10
0.7030
 20
0.5140
 30
 0.0
  0
SEQEND
  8
DRD
  0
POLYLINE
  8
DRD
 66
      1
 70
1
 40
0.0050
 41
0.0050
  0
VERTEX
  8
DRD
 10
0.7505
 20
0.5140
 30
 0.0
 42
1.0
  0
VERTEX
  8
DRD
 10
0.7555
 20
0.5140
 30
 0.0
 42
1.0
  0
SEQEND
  8
DRD
  0
POLYLINE
  8
DRD
 66
      1
 70
1
 40
0.0050
 41
0.0050
  0
VERTEX
  8
DRD
 10
0.7005
 20
0.5140
 30
 0.0
 42
1.0
  0
VERTEX
  8
DRD
 10
0.7055
 20
0.5140
 30
 0.0
 42
1.0
  0
SEQEND
  8
DRD
  0
POLYLINE
  8
DRD
 66
      1
 70
0
 40
0.0100
 41
0.0100
  0
VERTEX
  8
DRD
 10
0.7530
 20
0.5640
 30
 0.0
  0
VERTEX
  8
DRD
 10
0.7530
 20
0.5140
 30
 0.0
  0
SEQEND
  8
DRD
  0
POLYLINE
  8
DRD
 66
      1
 70
1
 40
0.0050
 41
0.0050
  0
VERTEX
  8
DRD
 10
0.7505
 20
0.5640
 30
 0.0
 42
1.0
  0
VERTEX
  8
DRD
 10
0.7555
 20
0.5640
 30
 0.0
 42
1.0
  0
SEQEND
  8
DRD
  0
POLYLINE
  8
DRD
 66
      1
 70
1
 40
0.0050
 41
0.0050
  0
VERTEX
  8
DRD
 10
0.7505
 20
0.5140
 30
 0.0
 42
1.0
  0
VERTEX
  8
DRD
 10
0.7555
 20
0.5140
 30
 0.0
 42
1.0
  0
SEQEND
  8
DRD
  0
POLYLINE
  8
DRD
 66
      1
 70
0
 40
0.0100
 41
0.0100
  0
VERTEX
  8
DRD
 10
0.7030
 20
0.5640
 30
 0.0
  0
VERTEX
  8
DRD
 10
0.7530
 20
0.5640
 30
 0.0
  0
SEQEND
  8
DRD
  0
POLYLINE
  8
DRD
 66
      1
 70
1
 40
0.0050
 41
0.0050
  0
VERTEX
  8
DRD
 10
0.7005
 20
0.5640
 30
 0.0
 42
1.0
  0
VERTEX
  8
DRD
 10
0.7055
 20
0.5640
 30
 0.0
 42
1.0
  0
SEQEND
  8
DRD
  0
POLYLINE
  8
DRD
 66
      1
 70
1
 40
0.0050
 41
0.0050
  0
VERTEX
  8
DRD
 10
0.7505
 20
0.5640
 30
 0.0
 42
1.0
  0
VERTEX
  8
DRD
 10
0.7555
 20
0.5640
 30
 0.0
 42
1.0
  0
SEQEND
  8
DRD
  0
POLYLINE
  8
DRD
 66
      1
 70
0
 40
0.0100
 41
0.0100
  0
VERTEX
  8
DRD
 10
0.7030
 20
0.5140
 30
 0.0
  0
VERTEX
  8
DRD
 10
0.7030
 20
0.5640
 30
 0.0
  0
SEQEND
  8
DRD
  0
POLYLINE
  8
DRD
 66
      1
 70
1
 40
0.0050
 41
0.0050
  0
VERTEX
  8
DRD
 10
0.7005
 20
0.5140
 30
 0.0
 42
1.0
  0
VERTEX
  8
DRD
 10
0.7055
 20
0.5140
 30
 0.0
 42
1.0
  0
SEQEND
  8
DRD
  0
POLYLINE
  8
DRD
 66
      1
 70
1
 40
0.0050
 41
0.0050
  0
VERTEX
  8
DRD
 10
0.7005
 20
0.5640
 30
 0.0
 42
1.0
  0
VERTEX
  8
DRD
 10
0.7055
 20
0.5640
 30
 0.0
 42
1.0
  0
SEQEND
  8
DRD
  0
POLYLINE
  8
DRD
 66
      1
 70
0
 40
0.0100
 41
0.0100
  0
VERTEX
  8
DRD
 10
2.7000
 20
1.6560
 30
 0.0
  0
VERTEX
  8
DRD
 10
2.7000
 20
1.7060
 30
 0.0
  0
SEQEND
  8
DRD
  0
POLYLINE
  8
DRD
 66
      1
 70
1
 40
0.0050
 41
0.0050
  0
VERTEX
  8
DRD
 10
2.6975
 20
1.6560
 30
 0.0
 42
1.0
  0
VERTEX
  8
DRD
 10
2.7025
 20
1.6560
 30
 0.0
 42
1.0
  0
SEQEND
  8
DRD
  0
POLYLINE
  8
DRD
 66
      1
 70
1
 40
0.0050
 41
0.0050
  0
VERTEX
  8
DRD
 10
2.6975
 20
1.7060
 30
 0.0
 42
1.0
  0
VERTEX
  8
DRD
 10
2.7025
 20
1.7060
 30
 0.0
 42
1.0
  0
SEQEND
  8
DRD
  0
POLYLINE
  8
DRD
 66
      1
 70
0
 40
0.0100
 41
0.0100
  0
VERTEX
  8
DRD
 10
2.6750
 20
1.6810
 30
 0.0
  0
VERTEX
  8
DRD
 10
2.7250
 20
1.6810
 30
 0.0
  0
SEQEND
  8
DRD
  0
POLYLINE
  8
DRD
 66
      1
 70
1
 40
0.0050
 41
0.0050
  0
VERTEX
  8
DRD
 10
2.6725
 20
1.6810
 30
 0.0
 42
1.0
  0
VERTEX
  8
DRD
 10
2.6775
 20
1.6810
 30
 0.0
 42
1.0
  0
SEQEND
  8
DRD
  0
POLYLINE
  8
DRD
 66
      1
 70
1
 40
0.0050
 41
0.0050
  0
VERTEX
  8
DRD
 10
2.7225
 20
1.6810
 30
 0.0
 42
1.0
  0
VERTEX
  8
DRD
 10
2.7275
 20
1.6810
 30
 0.0
 42
1.0
  0
SEQEND
  8
DRD
  0
POLYLINE
  8
DRD
 66
      1
 70
0
 40
0.0100
 41
0.0100
  0
VERTEX
  8
DRD
 10
2.7250
 20
1.6560
 30
 0.0
  0
VERTEX
  8
DRD
 10
2.6750
 20
1.6560
 30
 0.0
  0
SEQEND
  8
DRD
  0
POLYLINE
  8
DRD
 66
      1
 70
1
 40
0.0050
 41
0.0050
  0
VERTEX
  8
DRD
 10
2.7225
 20
1.6560
 30
 0.0
 42
1.0
  0
VERTEX
  8
DRD
 10
2.7275
 20
1.6560
 30
 0.0
 42
1.0
  0
SEQEND
  8
DRD
  0
POLYLINE
  8
DRD
 66
      1
 70
1
 40
0.0050
 41
0.0050
  0
VERTEX
  8
DRD
 10
2.6725
 20
1.6560
 30
 0.0
 42
1.0
  0
VERTEX
  8
DRD
 10
2.6775
 20
1.6560
 30
 0.0
 42
1.0
  0
SEQEND
  8
DRD
  0
POLYLINE
  8
DRD
 66
      1
 70
0
 40
0.0100
 41
0.0100
  0
VERTEX
  8
DRD
 10
2.7250
 20
1.7060
 30
 0.0
  0
VERTEX
  8
DRD
 10
2.7250
 20
1.6560
 30
 0.0
  0
SEQEND
  8
DRD
  0
POLYLINE
  8
DRD
 66
      1
 70
1
 40
0.0050
 41
0.0050
  0
VERTEX
  8
DRD
 10
2.7225
 20
1.7060
 30
 0.0
 42
1.0
  0
VERTEX
  8
DRD
 10
2.7275
 20
1.7060
 30
 0.0
 42
1.0
  0
SEQEND
  8
DRD
  0
POLYLINE
  8
DRD
 66
      1
 70
1
 40
0.0050
 41
0.0050
  0
VERTEX
  8
DRD
 10
2.7225
 20
1.6560
 30
 0.0
 42
1.0
  0
VERTEX
  8
DRD
 10
2.7275
 20
1.6560
 30
 0.0
 42
1.0
  0
SEQEND
  8
DRD
  0
POLYLINE
  8
DRD
 66
      1
 70
0
 40
0.0100
 41
0.0100
  0
VERTEX
  8
DRD
 10
2.6750
 20
1.7060
 30
 0.0
  0
VERTEX
  8
DRD
 10
2.7250
 20
1.7060
 30
 0.0
  0
SEQEND
  8
DRD
  0
POLYLINE
  8
DRD
 66
      1
 70
1
 40
0.0050
 41
0.0050
  0
VERTEX
  8
DRD
 10
2.6725
 20
1.7060
 30
 0.0
 42
1.0
  0
VERTEX
  8
DRD
 10
2.6775
 20
1.7060
 30
 0.0
 42
1.0
  0
SEQEND
  8
DRD
  0
POLYLINE
  8
DRD
 66
      1
 70
1
 40
0.0050
 41
0.0050
  0
VERTEX
  8
DRD
 10
2.7225
 20
1.7060
 30
 0.0
 42
1.0
  0
VERTEX
  8
DRD
 10
2.7275
 20
1.7060
 30
 0.0
 42
1.0
  0
SEQEND
  8
DRD
  0
POLYLINE
  8
DRD
 66
      1
 70
0
 40
0.0100
 41
0.0100
  0
VERTEX
  8
DRD
 10
2.6750
 20
1.6560
 30
 0.0
  0
VERTEX
  8
DRD
 10
2.6750
 20
1.7060
 30
 0.0
  0
SEQEND
  8
DRD
  0
POLYLINE
  8
DRD
 66
      1
 70
1
 40
0.0050
 41
0.0050
  0
VERTEX
  8
DRD
 10
2.6725
 20
1.6560
 30
 0.0
 42
1.0
  0
VERTEX
  8
DRD
 10
2.6775
 20
1.6560
 30
 0.0
 42
1.0
  0
SEQEND
  8
DRD
  0
POLYLINE
  8
DRD
 66
      1
 70
1
 40
0.0050
 41
0.0050
  0
VERTEX
  8
DRD
 10
2.6725
 20
1.7060
 30
 0.0
 42
1.0
  0
VERTEX
  8
DRD
 10
2.6775
 20
1.7060
 30
 0.0
 42
1.0
  0
SEQEND
  8
DRD
  0
POLYLINE
  8
DRD
 66
      1
 70
0
 40
0.0100
 41
0.0100
  0
VERTEX
  8
DRD
 10
0.7280
 20
1.6560
 30
 0.0
  0
VERTEX
  8
DRD
 10
0.7280
 20
1.7060
 30
 0.0
  0
SEQEND
  8
DRD
  0
POLYLINE
  8
DRD
 66
      1
 70
1
 40
0.0050
 41
0.0050
  0
VERTEX
  8
DRD
 10
0.7255
 20
1.6560
 30
 0.0
 42
1.0
  0
VERTEX
  8
DRD
 10
0.7305
 20
1.6560
 30
 0.0
 42
1.0
  0
SEQEND
  8
DRD
  0
POLYLINE
  8
DRD
 66
      1
 70
1
 40
0.0050
 41
0.0050
  0
VERTEX
  8
DRD
 10
0.7255
 20
1.7060
 30
 0.0
 42
1.0
  0
VERTEX
  8
DRD
 10
0.7305
 20
1.7060
 30
 0.0
 42
1.0
  0
SEQEND
  8
DRD
  0
POLYLINE
  8
DRD
 66
      1
 70
0
 40
0.0100
 41
0.0100
  0
VERTEX
  8
DRD
 10
0.7030
 20
1.6810
 30
 0.0
  0
VERTEX
  8
DRD
 10
0.7530
 20
1.6810
 30
 0.0
  0
SEQEND
  8
DRD
  0
POLYLINE
  8
DRD
 66
      1
 70
1
 40
0.0050
 41
0.0050
  0
VERTEX
  8
DRD
 10
0.7005
 20
1.6810
 30
 0.0
 42
1.0
  0
VERTEX
  8
DRD
 10
0.7055
 20
1.6810
 30
 0.0
 42
1.0
  0
SEQEND
  8
DRD
  0
POLYLINE
  8
DRD
 66
      1
 70
1
 40
0.0050
 41
0.0050
  0
VERTEX
  8
DRD
 10
0.7505
 20
1.6810
 30
 0.0
 42
1.0
  0
VERTEX
  8
DRD
 10
0.7555
 20
1.6810
 30
 0.0
 42
1.0
  0
SEQEND
  8
DRD
  0
POLYLINE
  8
DRD
 66
      1
 70
0
 40
0.0100
 41
0.0100
  0
VERTEX
  8
DRD
 10
0.7530
 20
1.6560
 30
 0.0
  0
VERTEX
  8
DRD
 10
0.7030
 20
1.6560
 30
 0.0
  0
SEQEND
  8
DRD
  0
POLYLINE
  8
DRD
 66
      1
 70
1
 40
0.0050
 41
0.0050
  0
VERTEX
  8
DRD
 10
0.7505
 20
1.6560
 30
 0.0
 42
1.0
  0
VERTEX
  8
DRD
 10
0.7555
 20
1.6560
 30
 0.0
 42
1.0
  0
SEQEND
  8
DRD
  0
POLYLINE
  8
DRD
 66
      1
 70
1
 40
0.0050
 41
0.0050
  0
VERTEX
  8
DRD
 10
0.7005
 20
1.6560
 30
 0.0
 42
1.0
  0
VERTEX
  8
DRD
 10
0.7055
 20
1.6560
 30
 0.0
 42
1.0
  0
SEQEND
  8
DRD
  0
POLYLINE
  8
DRD
 66
      1
 70
0
 40
0.0100
 41
0.0100
  0
VERTEX
  8
DRD
 10
0.7530
 20
1.7060
 30
 0.0
  0
VERTEX
  8
DRD
 10
0.7530
 20
1.6560
 30
 0.0
  0
SEQEND
  8
DRD
  0
POLYLINE
  8
DRD
 66
      1
 70
1
 40
0.0050
 41
0.0050
  0
VERTEX
  8
DRD
 10
0.7505
 20
1.7060
 30
 0.0
 42
1.0
  0
VERTEX
  8
DRD
 10
0.7555
 20
1.7060
 30
 0.0
 42
1.0
  0
SEQEND
  8
DRD
  0
POLYLINE
  8
DRD
 66
      1
 70
1
 40
0.0050
 41
0.0050
  0
VERTEX
  8
DRD
 10
0.7505
 20
1.6560
 30
 0.0
 42
1.0
  0
VERTEX
  8
DRD
 10
0.7555
 20
1.6560
 30
 0.0
 42
1.0
  0
SEQEND
  8
DRD
  0
POLYLINE
  8
DRD
 66
      1
 70
0
 40
0.0100
 41
0.0100
  0
VERTEX
  8
DRD
 10
0.7030
 20
1.7060
 30
 0.0
  0
VERTEX
  8
DRD
 10
0.7530
 20
1.7060
 30
 0.0
  0
SEQEND
  8
DRD
  0
POLYLINE
  8
DRD
 66
      1
 70
1
 40
0.0050
 41
0.0050
  0
VERTEX
  8
DRD
 10
0.7005
 20
1.7060
 30
 0.0
 42
1.0
  0
VERTEX
  8
DRD
 10
0.7055
 20
1.7060
 30
 0.0
 42
1.0
  0
SEQEND
  8
DRD
  0
POLYLINE
  8
DRD
 66
      1
 70
1
 40
0.0050
 41
0.0050
  0
VERTEX
  8
DRD
 10
0.7505
 20
1.7060
 30
 0.0
 42
1.0
  0
VERTEX
  8
DRD
 10
0.7555
 20
1.7060
 30
 0.0
 42
1.0
  0
SEQEND
  8
DRD
  0
POLYLINE
  8
DRD
 66
      1
 70
0
 40
0.0100
 41
0.0100
  0
VERTEX
  8
DRD
 10
0.7030
 20
1.6560
 30
 0.0
  0
VERTEX
  8
DRD
 10
0.7030
 20
1.7060
 30
 0.0
  0
SEQEND
  8
DRD
  0
POLYLINE
  8
DRD
 66
      1
 70
1
 40
0.0050
 41
0.0050
  0
VERTEX
  8
DRD
 10
0.7005
 20
1.6560
 30
 0.0
 42
1.0
  0
VERTEX
  8
DRD
 10
0.7055
 20
1.6560
 30
 0.0
 42
1.0
  0
SEQEND
  8
DRD
  0
POLYLINE
  8
DRD
 66
      1
 70
1
 40
0.0050
 41
0.0050
  0
VERTEX
  8
DRD
 10
0.7005
 20
1.7060
 30
 0.0
 42
1.0
  0
VERTEX
  8
DRD
 10
0.7055
 20
1.7060
 30
 0.0
 42
1.0
  0
SEQEND
  8
DRD
  0
POLYLINE
  8
DRD
 66
      1
 70
0
 40
0.0100
 41
0.0100
  0
VERTEX
  8
DRD
 10
1.4860
 20
1.6580
 30
 0.0
  0
VERTEX
  8
DRD
 10
1.5360
 20
1.6080
 30
 0.0
  0
SEQEND
  8
DRD
  0
POLYLINE
  8
DRD
 66
      1
 70
1
 40
0.0050
 41
0.0050
  0
VERTEX
  8
DRD
 10
1.4835
 20
1.6580
 30
 0.0
 42
1.0
  0
VERTEX
  8
DRD
 10
1.4885
 20
1.6580
 30
 0.0
 42
1.0
  0
SEQEND
  8
DRD
  0
POLYLINE
  8
DRD
 66
      1
 70
1
 40
0.0050
 41
0.0050
  0
VERTEX
  8
DRD
 10
1.5335
 20
1.6080
 30
 0.0
 42
1.0
  0
VERTEX
  8
DRD
 10
1.5385
 20
1.6080
 30
 0.0
 42
1.0
  0
SEQEND
  8
DRD
  0
POLYLINE
  8
DRD
 66
      1
 70
0
 40
0.0100
 41
0.0100
  0
VERTEX
  8
DRD
 10
1.4860
 20
1.6080
 30
 0.0
  0
VERTEX
  8
DRD
 10
1.5360
 20
1.6580
 30
 0.0
  0
SEQEND
  8
DRD
  0
POLYLINE
  8
DRD
 66
      1
 70
1
 40
0.0050
 41
0.0050
  0
VERTEX
  8
DRD
 10
1.4835
 20
1.6080
 30
 0.0
 42
1.0
  0
VERTEX
  8
DRD
 10
1.4885
 20
1.6080
 30
 0.0
 42
1.0
  0
SEQEND
  8
DRD
  0
POLYLINE
  8
DRD
 66
      1
 70
1
 40
0.0050
 41
0.0050
  0
VERTEX
  8
DRD
 10
1.5335
 20
1.6580
 30
 0.0
 42
1.0
  0
VERTEX
  8
DRD
 10
1.5385
 20
1.6580
 30
 0.0
 42
1.0
  0
SEQEND
  8
DRD
  0
POLYLINE
  8
DRD
 66
      1
 70
0
 40
0.0100
 41
0.0100
  0
VERTEX
  8
DRD
 10
1.5360
 20
1.6080
 30
 0.0
  0
VERTEX
  8
DRD
 10
1.4860
 20
1.6080
 30
 0.0
  0
SEQEND
  8
DRD
  0
POLYLINE
  8
DRD
 66
      1
 70
1
 40
0.0050
 41
0.0050
  0
VERTEX
  8
DRD
 10
1.5335
 20
1.6080
 30
 0.0
 42
1.0
  0
VERTEX
  8
DRD
 10
1.5385
 20
1.6080
 30
 0.0
 42
1.0
  0
SEQEND
  8
DRD
  0
POLYLINE
  8
DRD
 66
      1
 70
1
 40
0.0050
 41
0.0050
  0
VERTEX
  8
DRD
 10
1.4835
 20
1.6080
 30
 0.0
 42
1.0
  0
VERTEX
  8
DRD
 10
1.4885
 20
1.6080
 30
 0.0
 42
1.0
  0
SEQEND
  8
DRD
  0
POLYLINE
  8
DRD
 66
      1
 70
0
 40
0.0100
 41
0.0100
  0
VERTEX
  8
DRD
 10
1.5360
 20
1.6580
 30
 0.0
  0
VERTEX
  8
DRD
 10
1.5360
 20
1.6080
 30
 0.0
  0
SEQEND
  8
DRD
  0
POLYLINE
  8
DRD
 66
      1
 70
1
 40
0.0050
 41
0.0050
  0
VERTEX
  8
DRD
 10
1.5335
 20
1.6580
 30
 0.0
 42
1.0
  0
VERTEX
  8
DRD
 10
1.5385
 20
1.6580
 30
 0.0
 42
1.0
  0
SEQEND
  8
DRD
  0
POLYLINE
  8
DRD
 66
      1
 70
1
 40
0.0050
 41
0.0050
  0
VERTEX
  8
DRD
 10
1.5335
 20
1.6080
 30
 0.0
 42
1.0
  0
VERTEX
  8
DRD
 10
1.5385
 20
1.6080
 30
 0.0
 42
1.0
  0
SEQEND
  8
DRD
  0
POLYLINE
  8
DRD
 66
      1
 70
0
 40
0.0100
 41
0.0100
  0
VERTEX
  8
DRD
 10
1.4860
 20
1.6580
 30
 0.0
  0
VERTEX
  8
DRD
 10
1.5360
 20
1.6580
 30
 0.0
  0
SEQEND
  8
DRD
  0
POLYLINE
  8
DRD
 66
      1
 70
1
 40
0.0050
 41
0.0050
  0
VERTEX
  8
DRD
 10
1.4835
 20
1.6580
 30
 0.0
 42
1.0
  0
VERTEX
  8
DRD
 10
1.4885
 20
1.6580
 30
 0.0
 42
1.0
  0
SEQEND
  8
DRD
  0
POLYLINE
  8
DRD
 66
      1
 70
1
 40
0.0050
 41
0.0050
  0
VERTEX
  8
DRD
 10
1.5335
 20
1.6580
 30
 0.0
 42
1.0
  0
VERTEX
  8
DRD
 10
1.5385
 20
1.6580
 30
 0.0
 42
1.0
  0
SEQEND
  8
DRD
  0
POLYLINE
  8
DRD
 66
      1
 70
0
 40
0.0100
 41
0.0100
  0
VERTEX
  8
DRD
 10
1.4860
 20
1.6080
 30
 0.0
  0
VERTEX
  8
DRD
 10
1.4860
 20
1.6580
 30
 0.0
  0
SEQEND
  8
DRD
  0
POLYLINE
  8
DRD
 66
      1
 70
1
 40
0.0050
 41
0.0050
  0
VERTEX
  8
DRD
 10
1.4835
 20
1.6080
 30
 0.0
 42
1.0
  0
VERTEX
  8
DRD
 10
1.4885
 20
1.6080
 30
 0.0
 42
1.0
  0
SEQEND
  8
DRD
  0
POLYLINE
  8
DRD
 66
      1
 70
1
 40
0.0050
 41
0.0050
  0
VERTEX
  8
DRD
 10
1.4835
 20
1.6580
 30
 0.0
 42
1.0
  0
VERTEX
  8
DRD
 10
1.4885
 20
1.6580
 30
 0.0
 42
1.0
  0
SEQEND
  8
DRD
  0
POLYLINE
  8
DRD
 66
      1
 70
0
 40
0.0100
 41
0.0100
  0
VERTEX
  8
DRD
 10
1.4860
 20
1.4580
 30
 0.0
  0
VERTEX
  8
DRD
 10
1.5360
 20
1.4080
 30
 0.0
  0
SEQEND
  8
DRD
  0
POLYLINE
  8
DRD
 66
      1
 70
1
 40
0.0050
 41
0.0050
  0
VERTEX
  8
DRD
 10
1.4835
 20
1.4580
 30
 0.0
 42
1.0
  0
VERTEX
  8
DRD
 10
1.4885
 20
1.4580
 30
 0.0
 42
1.0
  0
SEQEND
  8
DRD
  0
POLYLINE
  8
DRD
 66
      1
 70
1
 40
0.0050
 41
0.0050
  0
VERTEX
  8
DRD
 10
1.5335
 20
1.4080
 30
 0.0
 42
1.0
  0
VERTEX
  8
DRD
 10
1.5385
 20
1.4080
 30
 0.0
 42
1.0
  0
SEQEND
  8
DRD
  0
POLYLINE
  8
DRD
 66
      1
 70
0
 40
0.0100
 41
0.0100
  0
VERTEX
  8
DRD
 10
1.4860
 20
1.4080
 30
 0.0
  0
VERTEX
  8
DRD
 10
1.5360
 20
1.4580
 30
 0.0
  0
SEQEND
  8
DRD
  0
POLYLINE
  8
DRD
 66
      1
 70
1
 40
0.0050
 41
0.0050
  0
VERTEX
  8
DRD
 10
1.4835
 20
1.4080
 30
 0.0
 42
1.0
  0
VERTEX
  8
DRD
 10
1.4885
 20
1.4080
 30
 0.0
 42
1.0
  0
SEQEND
  8
DRD
  0
POLYLINE
  8
DRD
 66
      1
 70
1
 40
0.0050
 41
0.0050
  0
VERTEX
  8
DRD
 10
1.5335
 20
1.4580
 30
 0.0
 42
1.0
  0
VERTEX
  8
DRD
 10
1.5385
 20
1.4580
 30
 0.0
 42
1.0
  0
SEQEND
  8
DRD
  0
POLYLINE
  8
DRD
 66
      1
 70
0
 40
0.0100
 41
0.0100
  0
VERTEX
  8
DRD
 10
1.5360
 20
1.4080
 30
 0.0
  0
VERTEX
  8
DRD
 10
1.4860
 20
1.4080
 30
 0.0
  0
SEQEND
  8
DRD
  0
POLYLINE
  8
DRD
 66
      1
 70
1
 40
0.0050
 41
0.0050
  0
VERTEX
  8
DRD
 10
1.5335
 20
1.4080
 30
 0.0
 42
1.0
  0
VERTEX
  8
DRD
 10
1.5385
 20
1.4080
 30
 0.0
 42
1.0
  0
SEQEND
  8
DRD
  0
POLYLINE
  8
DRD
 66
      1
 70
1
 40
0.0050
 41
0.0050
  0
VERTEX
  8
DRD
 10
1.4835
 20
1.4080
 30
 0.0
 42
1.0
  0
VERTEX
  8
DRD
 10
1.4885
 20
1.4080
 30
 0.0
 42
1.0
  0
SEQEND
  8
DRD
  0
POLYLINE
  8
DRD
 66
      1
 70
0
 40
0.0100
 41
0.0100
  0
VERTEX
  8
DRD
 10
1.5360
 20
1.4580
 30
 0.0
  0
VERTEX
  8
DRD
 10
1.5360
 20
1.4080
 30
 0.0
  0
SEQEND
  8
DRD
  0
POLYLINE
  8
DRD
 66
      1
 70
1
 40
0.0050
 41
0.0050
  0
VERTEX
  8
DRD
 10
1.5335
 20
1.4580
 30
 0.0
 42
1.0
  0
VERTEX
  8
DRD
 10
1.5385
 20
1.4580
 30
 0.0
 42
1.0
  0
SEQEND
  8
DRD
  0
POLYLINE
  8
DRD
 66
      1
 70
1
 40
0.0050
 41
0.0050
  0
VERTEX
  8
DRD
 10
1.5335
 20
1.4080
 30
 0.0
 42
1.0
  0
VERTEX
  8
DRD
 10
1.5385
 20
1.4080
 30
 0.0
 42
1.0
  0
SEQEND
  8
DRD
  0
POLYLINE
  8
DRD
 66
      1
 70
0
 40
0.0100
 41
0.0100
  0
VERTEX
  8
DRD
 10
1.4860
 20
1.4580
 30
 0.0
  0
VERTEX
  8
DRD
 10
1.5360
 20
1.4580
 30
 0.0
  0
SEQEND
  8
DRD
  0
POLYLINE
  8
DRD
 66
      1
 70
1
 40
0.0050
 41
0.0050
  0
VERTEX
  8
DRD
 10
1.4835
 20
1.4580
 30
 0.0
 42
1.0
  0
VERTEX
  8
DRD
 10
1.4885
 20
1.4580
 30
 0.0
 42
1.0
  0
SEQEND
  8
DRD
  0
POLYLINE
  8
DRD
 66
      1
 70
1
 40
0.0050
 41
0.0050
  0
VERTEX
  8
DRD
 10
1.5335
 20
1.4580
 30
 0.0
 42
1.0
  0
VERTEX
  8
DRD
 10
1.5385
 20
1.4580
 30
 0.0
 42
1.0
  0
SEQEND
  8
DRD
  0
POLYLINE
  8
DRD
 66
      1
 70
0
 40
0.0100
 41
0.0100
  0
VERTEX
  8
DRD
 10
1.4860
 20
1.4080
 30
 0.0
  0
VERTEX
  8
DRD
 10
1.4860
 20
1.4580
 30
 0.0
  0
SEQEND
  8
DRD
  0
POLYLINE
  8
DRD
 66
      1
 70
1
 40
0.0050
 41
0.0050
  0
VERTEX
  8
DRD
 10
1.4835
 20
1.4080
 30
 0.0
 42
1.0
  0
VERTEX
  8
DRD
 10
1.4885
 20
1.4080
 30
 0.0
 42
1.0
  0
SEQEND
  8
DRD
  0
POLYLINE
  8
DRD
 66
      1
 70
1
 40
0.0050
 41
0.0050
  0
VERTEX
  8
DRD
 10
1.4835
 20
1.4580
 30
 0.0
 42
1.0
  0
VERTEX
  8
DRD
 10
1.4885
 20
1.4580
 30
 0.0
 42
1.0
  0
SEQEND
  8
DRD
  0
POLYLINE
  8
DRD
 66
      1
 70
0
 40
0.0100
 41
0.0100
  0
VERTEX
  8
DRD
 10
1.9130
 20
1.6580
 30
 0.0
  0
VERTEX
  8
DRD
 10
1.9630
 20
1.6080
 30
 0.0
  0
SEQEND
  8
DRD
  0
POLYLINE
  8
DRD
 66
      1
 70
1
 40
0.0050
 41
0.0050
  0
VERTEX
  8
DRD
 10
1.9105
 20
1.6580
 30
 0.0
 42
1.0
  0
VERTEX
  8
DRD
 10
1.9155
 20
1.6580
 30
 0.0
 42
1.0
  0
SEQEND
  8
DRD
  0
POLYLINE
  8
DRD
 66
      1
 70
1
 40
0.0050
 41
0.0050
  0
VERTEX
  8
DRD
 10
1.9605
 20
1.6080
 30
 0.0
 42
1.0
  0
VERTEX
  8
DRD
 10
1.9655
 20
1.6080
 30
 0.0
 42
1.0
  0
SEQEND
  8
DRD
  0
POLYLINE
  8
DRD
 66
      1
 70
0
 40
0.0100
 41
0.0100
  0
VERTEX
  8
DRD
 10
1.9130
 20
1.6080
 30
 0.0
  0
VERTEX
  8
DRD
 10
1.9630
 20
1.6580
 30
 0.0
  0
SEQEND
  8
DRD
  0
POLYLINE
  8
DRD
 66
      1
 70
1
 40
0.0050
 41
0.0050
  0
VERTEX
  8
DRD
 10
1.9105
 20
1.6080
 30
 0.0
 42
1.0
  0
VERTEX
  8
DRD
 10
1.9155
 20
1.6080
 30
 0.0
 42
1.0
  0
SEQEND
  8
DRD
  0
POLYLINE
  8
DRD
 66
      1
 70
1
 40
0.0050
 41
0.0050
  0
VERTEX
  8
DRD
 10
1.9605
 20
1.6580
 30
 0.0
 42
1.0
  0
VERTEX
  8
DRD
 10
1.9655
 20
1.6580
 30
 0.0
 42
1.0
  0
SEQEND
  8
DRD
  0
POLYLINE
  8
DRD
 66
      1
 70
0
 40
0.0100
 41
0.0100
  0
VERTEX
  8
DRD
 10
1.9630
 20
1.6080
 30
 0.0
  0
VERTEX
  8
DRD
 10
1.9130
 20
1.6080
 30
 0.0
  0
SEQEND
  8
DRD
  0
POLYLINE
  8
DRD
 66
      1
 70
1
 40
0.0050
 41
0.0050
  0
VERTEX
  8
DRD
 10
1.9605
 20
1.6080
 30
 0.0
 42
1.0
  0
VERTEX
  8
DRD
 10
1.9655
 20
1.6080
 30
 0.0
 42
1.0
  0
SEQEND
  8
DRD
  0
POLYLINE
  8
DRD
 66
      1
 70
1
 40
0.0050
 41
0.0050
  0
VERTEX
  8
DRD
 10
1.9105
 20
1.6080
 30
 0.0
 42
1.0
  0
VERTEX
  8
DRD
 10
1.9155
 20
1.6080
 30
 0.0
 42
1.0
  0
SEQEND
  8
DRD
  0
POLYLINE
  8
DRD
 66
      1
 70
0
 40
0.0100
 41
0.0100
  0
VERTEX
  8
DRD
 10
1.9630
 20
1.6580
 30
 0.0
  0
VERTEX
  8
DRD
 10
1.9630
 20
1.6080
 30
 0.0
  0
SEQEND
  8
DRD
  0
POLYLINE
  8
DRD
 66
      1
 70
1
 40
0.0050
 41
0.0050
  0
VERTEX
  8
DRD
 10
1.9605
 20
1.6580
 30
 0.0
 42
1.0
  0
VERTEX
  8
DRD
 10
1.9655
 20
1.6580
 30
 0.0
 42
1.0
  0
SEQEND
  8
DRD
  0
POLYLINE
  8
DRD
 66
      1
 70
1
 40
0.0050
 41
0.0050
  0
VERTEX
  8
DRD
 10
1.9605
 20
1.6080
 30
 0.0
 42
1.0
  0
VERTEX
  8
DRD
 10
1.9655
 20
1.6080
 30
 0.0
 42
1.0
  0
SEQEND
  8
DRD
  0
POLYLINE
  8
DRD
 66
      1
 70
0
 40
0.0100
 41
0.0100
  0
VERTEX
  8
DRD
 10
1.9130
 20
1.6580
 30
 0.0
  0
VERTEX
  8
DRD
 10
1.9630
 20
1.6580
 30
 0.0
  0
SEQEND
  8
DRD
  0
POLYLINE
  8
DRD
 66
      1
 70
1
 40
0.0050
 41
0.0050
  0
VERTEX
  8
DRD
 10
1.9105
 20
1.6580
 30
 0.0
 42
1.0
  0
VERTEX
  8
DRD
 10
1.9155
 20
1.6580
 30
 0.0
 42
1.0
  0
SEQEND
  8
DRD
  0
POLYLINE
  8
DRD
 66
      1
 70
1
 40
0.0050
 41
0.0050
  0
VERTEX
  8
DRD
 10
1.9605
 20
1.6580
 30
 0.0
 42
1.0
  0
VERTEX
  8
DRD
 10
1.9655
 20
1.6580
 30
 0.0
 42
1.0
  0
SEQEND
  8
DRD
  0
POLYLINE
  8
DRD
 66
      1
 70
0
 40
0.0100
 41
0.0100
  0
VERTEX
  8
DRD
 10
1.9130
 20
1.6080
 30
 0.0
  0
VERTEX
  8
DRD
 10
1.9130
 20
1.6580
 30
 0.0
  0
SEQEND
  8
DRD
  0
POLYLINE
  8
DRD
 66
      1
 70
1
 40
0.0050
 41
0.0050
  0
VERTEX
  8
DRD
 10
1.9105
 20
1.6080
 30
 0.0
 42
1.0
  0
VERTEX
  8
DRD
 10
1.9155
 20
1.6080
 30
 0.0
 42
1.0
  0
SEQEND
  8
DRD
  0
POLYLINE
  8
DRD
 66
      1
 70
1
 40
0.0050
 41
0.0050
  0
VERTEX
  8
DRD
 10
1.9105
 20
1.6580
 30
 0.0
 42
1.0
  0
VERTEX
  8
DRD
 10
1.9155
 20
1.6580
 30
 0.0
 42
1.0
  0
SEQEND
  8
DRD
  0
POLYLINE
  8
DRD
 66
      1
 70
0
 40
0.0100
 41
0.0100
  0
VERTEX
  8
DRD
 10
1.9130
 20
1.4580
 30
 0.0
  0
VERTEX
  8
DRD
 10
1.9630
 20
1.4080
 30
 0.0
  0
SEQEND
  8
DRD
  0
POLYLINE
  8
DRD
 66
      1
 70
1
 40
0.0050
 41
0.0050
  0
VERTEX
  8
DRD
 10
1.9105
 20
1.4580
 30
 0.0
 42
1.0
  0
VERTEX
  8
DRD
 10
1.9155
 20
1.4580
 30
 0.0
 42
1.0
  0
SEQEND
  8
DRD
  0
POLYLINE
  8
DRD
 66
      1
 70
1
 40
0.0050
 41
0.0050
  0
VERTEX
  8
DRD
 10
1.9605
 20
1.4080
 30
 0.0
 42
1.0
  0
VERTEX
  8
DRD
 10
1.9655
 20
1.4080
 30
 0.0
 42
1.0
  0
SEQEND
  8
DRD
  0
POLYLINE
  8
DRD
 66
      1
 70
0
 40
0.0100
 41
0.0100
  0
VERTEX
  8
DRD
 10
1.9130
 20
1.4080
 30
 0.0
  0
VERTEX
  8
DRD
 10
1.9630
 20
1.4580
 30
 0.0
  0
SEQEND
  8
DRD
  0
POLYLINE
  8
DRD
 66
      1
 70
1
 40
0.0050
 41
0.0050
  0
VERTEX
  8
DRD
 10
1.9105
 20
1.4080
 30
 0.0
 42
1.0
  0
VERTEX
  8
DRD
 10
1.9155
 20
1.4080
 30
 0.0
 42
1.0
  0
SEQEND
  8
DRD
  0
POLYLINE
  8
DRD
 66
      1
 70
1
 40
0.0050
 41
0.0050
  0
VERTEX
  8
DRD
 10
1.9605
 20
1.4580
 30
 0.0
 42
1.0
  0
VERTEX
  8
DRD
 10
1.9655
 20
1.4580
 30
 0.0
 42
1.0
  0
SEQEND
  8
DRD
  0
POLYLINE
  8
DRD
 66
      1
 70
0
 40
0.0100
 41
0.0100
  0
VERTEX
  8
DRD
 10
1.9630
 20
1.4080
 30
 0.0
  0
VERTEX
  8
DRD
 10
1.9130
 20
1.4080
 30
 0.0
  0
SEQEND
  8
DRD
  0
POLYLINE
  8
DRD
 66
      1
 70
1
 40
0.0050
 41
0.0050
  0
VERTEX
  8
DRD
 10
1.9605
 20
1.4080
 30
 0.0
 42
1.0
  0
VERTEX
  8
DRD
 10
1.9655
 20
1.4080
 30
 0.0
 42
1.0
  0
SEQEND
  8
DRD
  0
POLYLINE
  8
DRD
 66
      1
 70
1
 40
0.0050
 41
0.0050
  0
VERTEX
  8
DRD
 10
1.9105
 20
1.4080
 30
 0.0
 42
1.0
  0
VERTEX
  8
DRD
 10
1.9155
 20
1.4080
 30
 0.0
 42
1.0
  0
SEQEND
  8
DRD
  0
POLYLINE
  8
DRD
 66
      1
 70
0
 40
0.0100
 41
0.0100
  0
VERTEX
  8
DRD
 10
1.9630
 20
1.4580
 30
 0.0
  0
VERTEX
  8
DRD
 10
1.9630
 20
1.4080
 30
 0.0
  0
SEQEND
  8
DRD
  0
POLYLINE
  8
DRD
 66
      1
 70
1
 40
0.0050
 41
0.0050
  0
VERTEX
  8
DRD
 10
1.9605
 20
1.4580
 30
 0.0
 42
1.0
  0
VERTEX
  8
DRD
 10
1.9655
 20
1.4580
 30
 0.0
 42
1.0
  0
SEQEND
  8
DRD
  0
POLYLINE
  8
DRD
 66
      1
 70
1
 40
0.0050
 41
0.0050
  0
VERTEX
  8
DRD
 10
1.9605
 20
1.4080
 30
 0.0
 42
1.0
  0
VERTEX
  8
DRD
 10
1.9655
 20
1.4080
 30
 0.0
 42
1.0
  0
SEQEND
  8
DRD
  0
POLYLINE
  8
DRD
 66
      1
 70
0
 40
0.0100
 41
0.0100
  0
VERTEX
  8
DRD
 10
1.9130
 20
1.4580
 30
 0.0
  0
VERTEX
  8
DRD
 10
1.9630
 20
1.4580
 30
 0.0
  0
SEQEND
  8
DRD
  0
POLYLINE
  8
DRD
 66
      1
 70
1
 40
0.0050
 41
0.0050
  0
VERTEX
  8
DRD
 10
1.9105
 20
1.4580
 30
 0.0
 42
1.0
  0
VERTEX
  8
DRD
 10
1.9155
 20
1.4580
 30
 0.0
 42
1.0
  0
SEQEND
  8
DRD
  0
POLYLINE
  8
DRD
 66
      1
 70
1
 40
0.0050
 41
0.0050
  0
VERTEX
  8
DRD
 10
1.9605
 20
1.4580
 30
 0.0
 42
1.0
  0
VERTEX
  8
DRD
 10
1.9655
 20
1.4580
 30
 0.0
 42
1.0
  0
SEQEND
  8
DRD
  0
POLYLINE
  8
DRD
 66
      1
 70
0
 40
0.0100
 41
0.0100
  0
VERTEX
  8
DRD
 10
1.9130
 20
1.4080
 30
 0.0
  0
VERTEX
  8
DRD
 10
1.9130
 20
1.4580
 30
 0.0
  0
SEQEND
  8
DRD
  0
POLYLINE
  8
DRD
 66
      1
 70
1
 40
0.0050
 41
0.0050
  0
VERTEX
  8
DRD
 10
1.9105
 20
1.4080
 30
 0.0
 42
1.0
  0
VERTEX
  8
DRD
 10
1.9155
 20
1.4080
 30
 0.0
 42
1.0
  0
SEQEND
  8
DRD
  0
POLYLINE
  8
DRD
 66
      1
 70
1
 40
0.0050
 41
0.0050
  0
VERTEX
  8
DRD
 10
1.9105
 20
1.4580
 30
 0.0
 42
1.0
  0
VERTEX
  8
DRD
 10
1.9155
 20
1.4580
 30
 0.0
 42
1.0
  0
SEQEND
  8
DRD
  0
POLYLINE
  8
DRD
 66
      1
 70
0
 40
0.0100
 41
0.0100
  0
VERTEX
  8
DRD
 10
2.3380
 20
1.6480
 30
 0.0
  0
VERTEX
  8
DRD
 10
2.3880
 20
1.5980
 30
 0.0
  0
SEQEND
  8
DRD
  0
POLYLINE
  8
DRD
 66
      1
 70
1
 40
0.0050
 41
0.0050
  0
VERTEX
  8
DRD
 10
2.3355
 20
1.6480
 30
 0.0
 42
1.0
  0
VERTEX
  8
DRD
 10
2.3405
 20
1.6480
 30
 0.0
 42
1.0
  0
SEQEND
  8
DRD
  0
POLYLINE
  8
DRD
 66
      1
 70
1
 40
0.0050
 41
0.0050
  0
VERTEX
  8
DRD
 10
2.3855
 20
1.5980
 30
 0.0
 42
1.0
  0
VERTEX
  8
DRD
 10
2.3905
 20
1.5980
 30
 0.0
 42
1.0
  0
SEQEND
  8
DRD
  0
POLYLINE
  8
DRD
 66
      1
 70
0
 40
0.0100
 41
0.0100
  0
VERTEX
  8
DRD
 10
2.3380
 20
1.5980
 30
 0.0
  0
VERTEX
  8
DRD
 10
2.3880
 20
1.6480
 30
 0.0
  0
SEQEND
  8
DRD
  0
POLYLINE
  8
DRD
 66
      1
 70
1
 40
0.0050
 41
0.0050
  0
VERTEX
  8
DRD
 10
2.3355
 20
1.5980
 30
 0.0
 42
1.0
  0
VERTEX
  8
DRD
 10
2.3405
 20
1.5980
 30
 0.0
 42
1.0
  0
SEQEND
  8
DRD
  0
POLYLINE
  8
DRD
 66
      1
 70
1
 40
0.0050
 41
0.0050
  0
VERTEX
  8
DRD
 10
2.3855
 20
1.6480
 30
 0.0
 42
1.0
  0
VERTEX
  8
DRD
 10
2.3905
 20
1.6480
 30
 0.0
 42
1.0
  0
SEQEND
  8
DRD
  0
POLYLINE
  8
DRD
 66
      1
 70
0
 40
0.0100
 41
0.0100
  0
VERTEX
  8
DRD
 10
2.3880
 20
1.5980
 30
 0.0
  0
VERTEX
  8
DRD
 10
2.3380
 20
1.5980
 30
 0.0
  0
SEQEND
  8
DRD
  0
POLYLINE
  8
DRD
 66
      1
 70
1
 40
0.0050
 41
0.0050
  0
VERTEX
  8
DRD
 10
2.3855
 20
1.5980
 30
 0.0
 42
1.0
  0
VERTEX
  8
DRD
 10
2.3905
 20
1.5980
 30
 0.0
 42
1.0
  0
SEQEND
  8
DRD
  0
POLYLINE
  8
DRD
 66
      1
 70
1
 40
0.0050
 41
0.0050
  0
VERTEX
  8
DRD
 10
2.3355
 20
1.5980
 30
 0.0
 42
1.0
  0
VERTEX
  8
DRD
 10
2.3405
 20
1.5980
 30
 0.0
 42
1.0
  0
SEQEND
  8
DRD
  0
POLYLINE
  8
DRD
 66
      1
 70
0
 40
0.0100
 41
0.0100
  0
VERTEX
  8
DRD
 10
2.3880
 20
1.6480
 30
 0.0
  0
VERTEX
  8
DRD
 10
2.3880
 20
1.5980
 30
 0.0
  0
SEQEND
  8
DRD
  0
POLYLINE
  8
DRD
 66
      1
 70
1
 40
0.0050
 41
0.0050
  0
VERTEX
  8
DRD
 10
2.3855
 20
1.6480
 30
 0.0
 42
1.0
  0
VERTEX
  8
DRD
 10
2.3905
 20
1.6480
 30
 0.0
 42
1.0
  0
SEQEND
  8
DRD
  0
POLYLINE
  8
DRD
 66
      1
 70
1
 40
0.0050
 41
0.0050
  0
VERTEX
  8
DRD
 10
2.3855
 20
1.5980
 30
 0.0
 42
1.0
  0
VERTEX
  8
DRD
 10
2.3905
 20
1.5980
 30
 0.0
 42
1.0
  0
SEQEND
  8
DRD
  0
POLYLINE
  8
DRD
 66
      1
 70
0
 40
0.0100
 41
0.0100
  0
VERTEX
  8
DRD
 10
2.3380
 20
1.6480
 30
 0.0
  0
VERTEX
  8
DRD
 10
2.3880
 20
1.6480
 30
 0.0
  0
SEQEND
  8
DRD
  0
POLYLINE
  8
DRD
 66
      1
 70
1
 40
0.0050
 41
0.0050
  0
VERTEX
  8
DRD
 10
2.3355
 20
1.6480
 30
 0.0
 42
1.0
  0
VERTEX
  8
DRD
 10
2.3405
 20
1.6480
 30
 0.0
 42
1.0
  0
SEQEND
  8
DRD
  0
POLYLINE
  8
DRD
 66
      1
 70
1
 40
0.0050
 41
0.0050
  0
VERTEX
  8
DRD
 10
2.3855
 20
1.6480
 30
 0.0
 42
1.0
  0
VERTEX
  8
DRD
 10
2.3905
 20
1.6480
 30
 0.0
 42
1.0
  0
SEQEND
  8
DRD
  0
POLYLINE
  8
DRD
 66
      1
 70
0
 40
0.0100
 41
0.0100
  0
VERTEX
  8
DRD
 10
2.3380
 20
1.5980
 30
 0.0
  0
VERTEX
  8
DRD
 10
2.3380
 20
1.6480
 30
 0.0
  0
SEQEND
  8
DRD
  0
POLYLINE
  8
DRD
 66
      1
 70
1
 40
0.0050
 41
0.0050
  0
VERTEX
  8
DRD
 10
2.3355
 20
1.5980
 30
 0.0
 42
1.0
  0
VERTEX
  8
DRD
 10
2.3405
 20
1.5980
 30
 0.0
 42
1.0
  0
SEQEND
  8
DRD
  0
POLYLINE
  8
DRD
 66
      1
 70
1
 40
0.0050
 41
0.0050
  0
VERTEX
  8
DRD
 10
2.3355
 20
1.6480
 30
 0.0
 42
1.0
  0
VERTEX
  8
DRD
 10
2.3405
 20
1.6480
 30
 0.0
 42
1.0
  0
SEQEND
  8
DRD
  0
POLYLINE
  8
DRD
 66
      1
 70
0
 40
0.0100
 41
0.0100
  0
VERTEX
  8
DRD
 10
2.3380
 20
1.4480
 30
 0.0
  0
VERTEX
  8
DRD
 10
2.3880
 20
1.3980
 30
 0.0
  0
SEQEND
  8
DRD
  0
POLYLINE
  8
DRD
 66
      1
 70
1
 40
0.0050
 41
0.0050
  0
VERTEX
  8
DRD
 10
2.3355
 20
1.4480
 30
 0.0
 42
1.0
  0
VERTEX
  8
DRD
 10
2.3405
 20
1.4480
 30
 0.0
 42
1.0
  0
SEQEND
  8
DRD
  0
POLYLINE
  8
DRD
 66
      1
 70
1
 40
0.0050
 41
0.0050
  0
VERTEX
  8
DRD
 10
2.3855
 20
1.3980
 30
 0.0
 42
1.0
  0
VERTEX
  8
DRD
 10
2.3905
 20
1.3980
 30
 0.0
 42
1.0
  0
SEQEND
  8
DRD
  0
POLYLINE
  8
DRD
 66
      1
 70
0
 40
0.0100
 41
0.0100
  0
VERTEX
  8
DRD
 10
2.3380
 20
1.3980
 30
 0.0
  0
VERTEX
  8
DRD
 10
2.3880
 20
1.4480
 30
 0.0
  0
SEQEND
  8
DRD
  0
POLYLINE
  8
DRD
 66
      1
 70
1
 40
0.0050
 41
0.0050
  0
VERTEX
  8
DRD
 10
2.3355
 20
1.3980
 30
 0.0
 42
1.0
  0
VERTEX
  8
DRD
 10
2.3405
 20
1.3980
 30
 0.0
 42
1.0
  0
SEQEND
  8
DRD
  0
POLYLINE
  8
DRD
 66
      1
 70
1
 40
0.0050
 41
0.0050
  0
VERTEX
  8
DRD
 10
2.3855
 20
1.4480
 30
 0.0
 42
1.0
  0
VERTEX
  8
DRD
 10
2.3905
 20
1.4480
 30
 0.0
 42
1.0
  0
SEQEND
  8
DRD
  0
POLYLINE
  8
DRD
 66
      1
 70
0
 40
0.0100
 41
0.0100
  0
VERTEX
  8
DRD
 10
2.3880
 20
1.3980
 30
 0.0
  0
VERTEX
  8
DRD
 10
2.3380
 20
1.3980
 30
 0.0
  0
SEQEND
  8
DRD
  0
POLYLINE
  8
DRD
 66
      1
 70
1
 40
0.0050
 41
0.0050
  0
VERTEX
  8
DRD
 10
2.3855
 20
1.3980
 30
 0.0
 42
1.0
  0
VERTEX
  8
DRD
 10
2.3905
 20
1.3980
 30
 0.0
 42
1.0
  0
SEQEND
  8
DRD
  0
POLYLINE
  8
DRD
 66
      1
 70
1
 40
0.0050
 41
0.0050
  0
VERTEX
  8
DRD
 10
2.3355
 20
1.3980
 30
 0.0
 42
1.0
  0
VERTEX
  8
DRD
 10
2.3405
 20
1.3980
 30
 0.0
 42
1.0
  0
SEQEND
  8
DRD
  0
POLYLINE
  8
DRD
 66
      1
 70
0
 40
0.0100
 41
0.0100
  0
VERTEX
  8
DRD
 10
2.3880
 20
1.4480
 30
 0.0
  0
VERTEX
  8
DRD
 10
2.3880
 20
1.3980
 30
 0.0
  0
SEQEND
  8
DRD
  0
POLYLINE
  8
DRD
 66
      1
 70
1
 40
0.0050
 41
0.0050
  0
VERTEX
  8
DRD
 10
2.3855
 20
1.4480
 30
 0.0
 42
1.0
  0
VERTEX
  8
DRD
 10
2.3905
 20
1.4480
 30
 0.0
 42
1.0
  0
SEQEND
  8
DRD
  0
POLYLINE
  8
DRD
 66
      1
 70
1
 40
0.0050
 41
0.0050
  0
VERTEX
  8
DRD
 10
2.3855
 20
1.3980
 30
 0.0
 42
1.0
  0
VERTEX
  8
DRD
 10
2.3905
 20
1.3980
 30
 0.0
 42
1.0
  0
SEQEND
  8
DRD
  0
POLYLINE
  8
DRD
 66
      1
 70
0
 40
0.0100
 41
0.0100
  0
VERTEX
  8
DRD
 10
2.3380
 20
1.4480
 30
 0.0
  0
VERTEX
  8
DRD
 10
2.3880
 20
1.4480
 30
 0.0
  0
SEQEND
  8
DRD
  0
POLYLINE
  8
DRD
 66
      1
 70
1
 40
0.0050
 41
0.0050
  0
VERTEX
  8
DRD
 10
2.3355
 20
1.4480
 30
 0.0
 42
1.0
  0
VERTEX
  8
DRD
 10
2.3405
 20
1.4480
 30
 0.0
 42
1.0
  0
SEQEND
  8
DRD
  0
POLYLINE
  8
DRD
 66
      1
 70
1
 40
0.0050
 41
0.0050
  0
VERTEX
  8
DRD
 10
2.3855
 20
1.4480
 30
 0.0
 42
1.0
  0
VERTEX
  8
DRD
 10
2.3905
 20
1.4480
 30
 0.0
 42
1.0
  0
SEQEND
  8
DRD
  0
POLYLINE
  8
DRD
 66
      1
 70
0
 40
0.0100
 41
0.0100
  0
VERTEX
  8
DRD
 10
2.3380
 20
1.3980
 30
 0.0
  0
VERTEX
  8
DRD
 10
2.3380
 20
1.4480
 30
 0.0
  0
SEQEND
  8
DRD
  0
POLYLINE
  8
DRD
 66
      1
 70
1
 40
0.0050
 41
0.0050
  0
VERTEX
  8
DRD
 10
2.3355
 20
1.3980
 30
 0.0
 42
1.0
  0
VERTEX
  8
DRD
 10
2.3405
 20
1.3980
 30
 0.0
 42
1.0
  0
SEQEND
  8
DRD
  0
POLYLINE
  8
DRD
 66
      1
 70
1
 40
0.0050
 41
0.0050
  0
VERTEX
  8
DRD
 10
2.3355
 20
1.4480
 30
 0.0
 42
1.0
  0
VERTEX
  8
DRD
 10
2.3405
 20
1.4480
 30
 0.0
 42
1.0
  0
SEQEND
  8
DRD
  0
POLYLINE
  8
DRD
 66
      1
 70
0
 40
0.0100
 41
0.0100
  0
VERTEX
  8
DRD
 10
1.0760
 20
1.2320
 30
 0.0
  0
VERTEX
  8
DRD
 10
1.1260
 20
1.1820
 30
 0.0
  0
SEQEND
  8
DRD
  0
POLYLINE
  8
DRD
 66
      1
 70
1
 40
0.0050
 41
0.0050
  0
VERTEX
  8
DRD
 10
1.0735
 20
1.2320
 30
 0.0
 42
1.0
  0
VERTEX
  8
DRD
 10
1.0785
 20
1.2320
 30
 0.0
 42
1.0
  0
SEQEND
  8
DRD
  0
POLYLINE
  8
DRD
 66
      1
 70
1
 40
0.0050
 41
0.0050
  0
VERTEX
  8
DRD
 10
1.1235
 20
1.1820
 30
 0.0
 42
1.0
  0
VERTEX
  8
DRD
 10
1.1285
 20
1.1820
 30
 0.0
 42
1.0
  0
SEQEND
  8
DRD
  0
POLYLINE
  8
DRD
 66
      1
 70
0
 40
0.0100
 41
0.0100
  0
VERTEX
  8
DRD
 10
1.0760
 20
1.1820
 30
 0.0
  0
VERTEX
  8
DRD
 10
1.1260
 20
1.2320
 30
 0.0
  0
SEQEND
  8
DRD
  0
POLYLINE
  8
DRD
 66
      1
 70
1
 40
0.0050
 41
0.0050
  0
VERTEX
  8
DRD
 10
1.0735
 20
1.1820
 30
 0.0
 42
1.0
  0
VERTEX
  8
DRD
 10
1.0785
 20
1.1820
 30
 0.0
 42
1.0
  0
SEQEND
  8
DRD
  0
POLYLINE
  8
DRD
 66
      1
 70
1
 40
0.0050
 41
0.0050
  0
VERTEX
  8
DRD
 10
1.1235
 20
1.2320
 30
 0.0
 42
1.0
  0
VERTEX
  8
DRD
 10
1.1285
 20
1.2320
 30
 0.0
 42
1.0
  0
SEQEND
  8
DRD
  0
POLYLINE
  8
DRD
 66
      1
 70
0
 40
0.0100
 41
0.0100
  0
VERTEX
  8
DRD
 10
1.0760
 20
1.3760
 30
 0.0
  0
VERTEX
  8
DRD
 10
1.1260
 20
1.3260
 30
 0.0
  0
SEQEND
  8
DRD
  0
POLYLINE
  8
DRD
 66
      1
 70
1
 40
0.0050
 41
0.0050
  0
VERTEX
  8
DRD
 10
1.0735
 20
1.3760
 30
 0.0
 42
1.0
  0
VERTEX
  8
DRD
 10
1.0785
 20
1.3760
 30
 0.0
 42
1.0
  0
SEQEND
  8
DRD
  0
POLYLINE
  8
DRD
 66
      1
 70
1
 40
0.0050
 41
0.0050
  0
VERTEX
  8
DRD
 10
1.1235
 20
1.3260
 30
 0.0
 42
1.0
  0
VERTEX
  8
DRD
 10
1.1285
 20
1.3260
 30
 0.0
 42
1.0
  0
SEQEND
  8
DRD
  0
POLYLINE
  8
DRD
 66
      1
 70
0
 40
0.0100
 41
0.0100
  0
VERTEX
  8
DRD
 10
1.0760
 20
1.3260
 30
 0.0
  0
VERTEX
  8
DRD
 10
1.1260
 20
1.3760
 30
 0.0
  0
SEQEND
  8
DRD
  0
POLYLINE
  8
DRD
 66
      1
 70
1
 40
0.0050
 41
0.0050
  0
VERTEX
  8
DRD
 10
1.0735
 20
1.3260
 30
 0.0
 42
1.0
  0
VERTEX
  8
DRD
 10
1.0785
 20
1.3260
 30
 0.0
 42
1.0
  0
SEQEND
  8
DRD
  0
POLYLINE
  8
DRD
 66
      1
 70
1
 40
0.0050
 41
0.0050
  0
VERTEX
  8
DRD
 10
1.1235
 20
1.3760
 30
 0.0
 42
1.0
  0
VERTEX
  8
DRD
 10
1.1285
 20
1.3760
 30
 0.0
 42
1.0
  0
SEQEND
  8
DRD
  0
POLYLINE
  8
DRD
 66
      1
 70
0
 40
0.0100
 41
0.0100
  0
VERTEX
  8
DRD
 10
1.0760
 20
1.5520
 30
 0.0
  0
VERTEX
  8
DRD
 10
1.1260
 20
1.5020
 30
 0.0
  0
SEQEND
  8
DRD
  0
POLYLINE
  8
DRD
 66
      1
 70
1
 40
0.0050
 41
0.0050
  0
VERTEX
  8
DRD
 10
1.0735
 20
1.5520
 30
 0.0
 42
1.0
  0
VERTEX
  8
DRD
 10
1.0785
 20
1.5520
 30
 0.0
 42
1.0
  0
SEQEND
  8
DRD
  0
POLYLINE
  8
DRD
 66
      1
 70
1
 40
0.0050
 41
0.0050
  0
VERTEX
  8
DRD
 10
1.1235
 20
1.5020
 30
 0.0
 42
1.0
  0
VERTEX
  8
DRD
 10
1.1285
 20
1.5020
 30
 0.0
 42
1.0
  0
SEQEND
  8
DRD
  0
POLYLINE
  8
DRD
 66
      1
 70
0
 40
0.0100
 41
0.0100
  0
VERTEX
  8
DRD
 10
1.0760
 20
1.5020
 30
 0.0
  0
VERTEX
  8
DRD
 10
1.1260
 20
1.5520
 30
 0.0
  0
SEQEND
  8
DRD
  0
POLYLINE
  8
DRD
 66
      1
 70
1
 40
0.0050
 41
0.0050
  0
VERTEX
  8
DRD
 10
1.0735
 20
1.5020
 30
 0.0
 42
1.0
  0
VERTEX
  8
DRD
 10
1.0785
 20
1.5020
 30
 0.0
 42
1.0
  0
SEQEND
  8
DRD
  0
POLYLINE
  8
DRD
 66
      1
 70
1
 40
0.0050
 41
0.0050
  0
VERTEX
  8
DRD
 10
1.1235
 20
1.5520
 30
 0.0
 42
1.0
  0
VERTEX
  8
DRD
 10
1.1285
 20
1.5520
 30
 0.0
 42
1.0
  0
SEQEND
  8
DRD
  0
POLYLINE
  8
DRD
 66
      1
 70
0
 40
0.0100
 41
0.0100
  0
VERTEX
  8
DRD
 10
1.0760
 20
1.6960
 30
 0.0
  0
VERTEX
  8
DRD
 10
1.1260
 20
1.6460
 30
 0.0
  0
SEQEND
  8
DRD
  0
POLYLINE
  8
DRD
 66
      1
 70
1
 40
0.0050
 41
0.0050
  0
VERTEX
  8
DRD
 10
1.0735
 20
1.6960
 30
 0.0
 42
1.0
  0
VERTEX
  8
DRD
 10
1.0785
 20
1.6960
 30
 0.0
 42
1.0
  0
SEQEND
  8
DRD
  0
POLYLINE
  8
DRD
 66
      1
 70
1
 40
0.0050
 41
0.0050
  0
VERTEX
  8
DRD
 10
1.1235
 20
1.6460
 30
 0.0
 42
1.0
  0
VERTEX
  8
DRD
 10
1.1285
 20
1.6460
 30
 0.0
 42
1.0
  0
SEQEND
  8
DRD
  0
POLYLINE
  8
DRD
 66
      1
 70
0
 40
0.0100
 41
0.0100
  0
VERTEX
  8
DRD
 10
1.0760
 20
1.6460
 30
 0.0
  0
VERTEX
  8
DRD
 10
1.1260
 20
1.6960
 30
 0.0
  0
SEQEND
  8
DRD
  0
POLYLINE
  8
DRD
 66
      1
 70
1
 40
0.0050
 41
0.0050
  0
VERTEX
  8
DRD
 10
1.0735
 20
1.6460
 30
 0.0
 42
1.0
  0
VERTEX
  8
DRD
 10
1.0785
 20
1.6460
 30
 0.0
 42
1.0
  0
SEQEND
  8
DRD
  0
POLYLINE
  8
DRD
 66
      1
 70
1
 40
0.0050
 41
0.0050
  0
VERTEX
  8
DRD
 10
1.1235
 20
1.6960
 30
 0.0
 42
1.0
  0
VERTEX
  8
DRD
 10
1.1285
 20
1.6960
 30
 0.0
 42
1.0
  0
SEQEND
  8
DRD
  0
POLYLINE
  8
DRD
 66
      1
 70
0
 40
0.0100
 41
0.0100
  0
VERTEX
  8
DRD
 10
0.6470
 20
1.3800
 30
 0.0
  0
VERTEX
  8
DRD
 10
0.6470
 20
1.4300
 30
 0.0
  0
SEQEND
  8
DRD
  0
POLYLINE
  8
DRD
 66
      1
 70
1
 40
0.0050
 41
0.0050
  0
VERTEX
  8
DRD
 10
0.6445
 20
1.3800
 30
 0.0
 42
1.0
  0
VERTEX
  8
DRD
 10
0.6495
 20
1.3800
 30
 0.0
 42
1.0
  0
SEQEND
  8
DRD
  0
POLYLINE
  8
DRD
 66
      1
 70
1
 40
0.0050
 41
0.0050
  0
VERTEX
  8
DRD
 10
0.6445
 20
1.4300
 30
 0.0
 42
1.0
  0
VERTEX
  8
DRD
 10
0.6495
 20
1.4300
 30
 0.0
 42
1.0
  0
SEQEND
  8
DRD
  0
POLYLINE
  8
DRD
 66
      1
 70
0
 40
0.0100
 41
0.0100
  0
VERTEX
  8
DRD
 10
0.6220
 20
1.4050
 30
 0.0
  0
VERTEX
  8
DRD
 10
0.6720
 20
1.4050
 30
 0.0
  0
SEQEND
  8
DRD
  0
POLYLINE
  8
DRD
 66
      1
 70
1
 40
0.0050
 41
0.0050
  0
VERTEX
  8
DRD
 10
0.6195
 20
1.4050
 30
 0.0
 42
1.0
  0
VERTEX
  8
DRD
 10
0.6245
 20
1.4050
 30
 0.0
 42
1.0
  0
SEQEND
  8
DRD
  0
POLYLINE
  8
DRD
 66
      1
 70
1
 40
0.0050
 41
0.0050
  0
VERTEX
  8
DRD
 10
0.6695
 20
1.4050
 30
 0.0
 42
1.0
  0
VERTEX
  8
DRD
 10
0.6745
 20
1.4050
 30
 0.0
 42
1.0
  0
SEQEND
  8
DRD
  0
POLYLINE
  8
DRD
 66
      1
 70
0
 40
0.0100
 41
0.0100
  0
VERTEX
  8
DRD
 10
0.8470
 20
1.3800
 30
 0.0
  0
VERTEX
  8
DRD
 10
0.8470
 20
1.4300
 30
 0.0
  0
SEQEND
  8
DRD
  0
POLYLINE
  8
DRD
 66
      1
 70
1
 40
0.0050
 41
0.0050
  0
VERTEX
  8
DRD
 10
0.8445
 20
1.3800
 30
 0.0
 42
1.0
  0
VERTEX
  8
DRD
 10
0.8495
 20
1.3800
 30
 0.0
 42
1.0
  0
SEQEND
  8
DRD
  0
POLYLINE
  8
DRD
 66
      1
 70
1
 40
0.0050
 41
0.0050
  0
VERTEX
  8
DRD
 10
0.8445
 20
1.4300
 30
 0.0
 42
1.0
  0
VERTEX
  8
DRD
 10
0.8495
 20
1.4300
 30
 0.0
 42
1.0
  0
SEQEND
  8
DRD
  0
POLYLINE
  8
DRD
 66
      1
 70
0
 40
0.0100
 41
0.0100
  0
VERTEX
  8
DRD
 10
0.8220
 20
1.4050
 30
 0.0
  0
VERTEX
  8
DRD
 10
0.8720
 20
1.4050
 30
 0.0
  0
SEQEND
  8
DRD
  0
POLYLINE
  8
DRD
 66
      1
 70
1
 40
0.0050
 41
0.0050
  0
VERTEX
  8
DRD
 10
0.8195
 20
1.4050
 30
 0.0
 42
1.0
  0
VERTEX
  8
DRD
 10
0.8245
 20
1.4050
 30
 0.0
 42
1.0
  0
SEQEND
  8
DRD
  0
POLYLINE
  8
DRD
 66
      1
 70
1
 40
0.0050
 41
0.0050
  0
VERTEX
  8
DRD
 10
0.8695
 20
1.4050
 30
 0.0
 42
1.0
  0
VERTEX
  8
DRD
 10
0.8745
 20
1.4050
 30
 0.0
 42
1.0
  0
SEQEND
  8
DRD
  0
POLYLINE
  8
DRD
 66
      1
 70
0
 40
0.0100
 41
0.0100
  0
VERTEX
  8
DRD
 10
0.6470
 20
1.1610
 30
 0.0
  0
VERTEX
  8
DRD
 10
0.6470
 20
1.2110
 30
 0.0
  0
SEQEND
  8
DRD
  0
POLYLINE
  8
DRD
 66
      1
 70
1
 40
0.0050
 41
0.0050
  0
VERTEX
  8
DRD
 10
0.6445
 20
1.1610
 30
 0.0
 42
1.0
  0
VERTEX
  8
DRD
 10
0.6495
 20
1.1610
 30
 0.0
 42
1.0
  0
SEQEND
  8
DRD
  0
POLYLINE
  8
DRD
 66
      1
 70
1
 40
0.0050
 41
0.0050
  0
VERTEX
  8
DRD
 10
0.6445
 20
1.2110
 30
 0.0
 42
1.0
  0
VERTEX
  8
DRD
 10
0.6495
 20
1.2110
 30
 0.0
 42
1.0
  0
SEQEND
  8
DRD
  0
POLYLINE
  8
DRD
 66
      1
 70
0
 40
0.0100
 41
0.0100
  0
VERTEX
  8
DRD
 10
0.6220
 20
1.1860
 30
 0.0
  0
VERTEX
  8
DRD
 10
0.6720
 20
1.1860
 30
 0.0
  0
SEQEND
  8
DRD
  0
POLYLINE
  8
DRD
 66
      1
 70
1
 40
0.0050
 41
0.0050
  0
VERTEX
  8
DRD
 10
0.6195
 20
1.1860
 30
 0.0
 42
1.0
  0
VERTEX
  8
DRD
 10
0.6245
 20
1.1860
 30
 0.0
 42
1.0
  0
SEQEND
  8
DRD
  0
POLYLINE
  8
DRD
 66
      1
 70
1
 40
0.0050
 41
0.0050
  0
VERTEX
  8
DRD
 10
0.6695
 20
1.1860
 30
 0.0
 42
1.0
  0
VERTEX
  8
DRD
 10
0.6745
 20
1.1860
 30
 0.0
 42
1.0
  0
SEQEND
  8
DRD
  0
POLYLINE
  8
DRD
 66
      1
 70
0
 40
0.0100
 41
0.0100
  0
VERTEX
  8
DRD
 10
0.8470
 20
1.1610
 30
 0.0
  0
VERTEX
  8
DRD
 10
0.8470
 20
1.2110
 30
 0.0
  0
SEQEND
  8
DRD
  0
POLYLINE
  8
DRD
 66
      1
 70
1
 40
0.0050
 41
0.0050
  0
VERTEX
  8
DRD
 10
0.8445
 20
1.1610
 30
 0.0
 42
1.0
  0
VERTEX
  8
DRD
 10
0.8495
 20
1.1610
 30
 0.0
 42
1.0
  0
SEQEND
  8
DRD
  0
POLYLINE
  8
DRD
 66
      1
 70
1
 40
0.0050
 41
0.0050
  0
VERTEX
  8
DRD
 10
0.8445
 20
1.2110
 30
 0.0
 42
1.0
  0
VERTEX
  8
DRD
 10
0.8495
 20
1.2110
 30
 0.0
 42
1.0
  0
SEQEND
  8
DRD
  0
POLYLINE
  8
DRD
 66
      1
 70
0
 40
0.0100
 41
0.0100
  0
VERTEX
  8
DRD
 10
0.8220
 20
1.1860
 30
 0.0
  0
VERTEX
  8
DRD
 10
0.8720
 20
1.1860
 30
 0.0
  0
SEQEND
  8
DRD
  0
POLYLINE
  8
DRD
 66
      1
 70
1
 40
0.0050
 41
0.0050
  0
VERTEX
  8
DRD
 10
0.8195
 20
1.1860
 30
 0.0
 42
1.0
  0
VERTEX
  8
DRD
 10
0.8245
 20
1.1860
 30
 0.0
 42
1.0
  0
SEQEND
  8
DRD
  0
POLYLINE
  8
DRD
 66
      1
 70
1
 40
0.0050
 41
0.0050
  0
VERTEX
  8
DRD
 10
0.8695
 20
1.1860
 30
 0.0
 42
1.0
  0
VERTEX
  8
DRD
 10
0.8745
 20
1.1860
 30
 0.0
 42
1.0
  0
SEQEND
  8
DRD
  0
POLYLINE
  8
DRD
 66
      1
 70
0
 40
0.0100
 41
0.0100
  0
VERTEX
  8
DRD
 10
0.6460
 20
0.7190
 30
 0.0
  0
VERTEX
  8
DRD
 10
0.6460
 20
0.7690
 30
 0.0
  0
SEQEND
  8
DRD
  0
POLYLINE
  8
DRD
 66
      1
 70
1
 40
0.0050
 41
0.0050
  0
VERTEX
  8
DRD
 10
0.6435
 20
0.7190
 30
 0.0
 42
1.0
  0
VERTEX
  8
DRD
 10
0.6485
 20
0.7190
 30
 0.0
 42
1.0
  0
SEQEND
  8
DRD
  0
POLYLINE
  8
DRD
 66
      1
 70
1
 40
0.0050
 41
0.0050
  0
VERTEX
  8
DRD
 10
0.6435
 20
0.7690
 30
 0.0
 42
1.0
  0
VERTEX
  8
DRD
 10
0.6485
 20
0.7690
 30
 0.0
 42
1.0
  0
SEQEND
  8
DRD
  0
POLYLINE
  8
DRD
 66
      1
 70
0
 40
0.0100
 41
0.0100
  0
VERTEX
  8
DRD
 10
0.6210
 20
0.7440
 30
 0.0
  0
VERTEX
  8
DRD
 10
0.6710
 20
0.7440
 30
 0.0
  0
SEQEND
  8
DRD
  0
POLYLINE
  8
DRD
 66
      1
 70
1
 40
0.0050
 41
0.0050
  0
VERTEX
  8
DRD
 10
0.6185
 20
0.7440
 30
 0.0
 42
1.0
  0
VERTEX
  8
DRD
 10
0.6235
 20
0.7440
 30
 0.0
 42
1.0
  0
SEQEND
  8
DRD
  0
POLYLINE
  8
DRD
 66
      1
 70
1
 40
0.0050
 41
0.0050
  0
VERTEX
  8
DRD
 10
0.6685
 20
0.7440
 30
 0.0
 42
1.0
  0
VERTEX
  8
DRD
 10
0.6735
 20
0.7440
 30
 0.0
 42
1.0
  0
SEQEND
  8
DRD
  0
POLYLINE
  8
DRD
 66
      1
 70
0
 40
0.0100
 41
0.0100
  0
VERTEX
  8
DRD
 10
0.8460
 20
0.7190
 30
 0.0
  0
VERTEX
  8
DRD
 10
0.8460
 20
0.7690
 30
 0.0
  0
SEQEND
  8
DRD
  0
POLYLINE
  8
DRD
 66
      1
 70
1
 40
0.0050
 41
0.0050
  0
VERTEX
  8
DRD
 10
0.8435
 20
0.7190
 30
 0.0
 42
1.0
  0
VERTEX
  8
DRD
 10
0.8485
 20
0.7190
 30
 0.0
 42
1.0
  0
SEQEND
  8
DRD
  0
POLYLINE
  8
DRD
 66
      1
 70
1
 40
0.0050
 41
0.0050
  0
VERTEX
  8
DRD
 10
0.8435
 20
0.7690
 30
 0.0
 42
1.0
  0
VERTEX
  8
DRD
 10
0.8485
 20
0.7690
 30
 0.0
 42
1.0
  0
SEQEND
  8
DRD
  0
POLYLINE
  8
DRD
 66
      1
 70
0
 40
0.0100
 41
0.0100
  0
VERTEX
  8
DRD
 10
0.8210
 20
0.7440
 30
 0.0
  0
VERTEX
  8
DRD
 10
0.8710
 20
0.7440
 30
 0.0
  0
SEQEND
  8
DRD
  0
POLYLINE
  8
DRD
 66
      1
 70
1
 40
0.0050
 41
0.0050
  0
VERTEX
  8
DRD
 10
0.8185
 20
0.7440
 30
 0.0
 42
1.0
  0
VERTEX
  8
DRD
 10
0.8235
 20
0.7440
 30
 0.0
 42
1.0
  0
SEQEND
  8
DRD
  0
POLYLINE
  8
DRD
 66
      1
 70
1
 40
0.0050
 41
0.0050
  0
VERTEX
  8
DRD
 10
0.8685
 20
0.7440
 30
 0.0
 42
1.0
  0
VERTEX
  8
DRD
 10
0.8735
 20
0.7440
 30
 0.0
 42
1.0
  0
SEQEND
  8
DRD
  0
POLYLINE
  8
DRD
 66
      1
 70
0
 40
0.0100
 41
0.0100
  0
VERTEX
  8
DRD
 10
0.6460
 20
0.9410
 30
 0.0
  0
VERTEX
  8
DRD
 10
0.6460
 20
0.9910
 30
 0.0
  0
SEQEND
  8
DRD
  0
POLYLINE
  8
DRD
 66
      1
 70
1
 40
0.0050
 41
0.0050
  0
VERTEX
  8
DRD
 10
0.6435
 20
0.9410
 30
 0.0
 42
1.0
  0
VERTEX
  8
DRD
 10
0.6485
 20
0.9410
 30
 0.0
 42
1.0
  0
SEQEND
  8
DRD
  0
POLYLINE
  8
DRD
 66
      1
 70
1
 40
0.0050
 41
0.0050
  0
VERTEX
  8
DRD
 10
0.6435
 20
0.9910
 30
 0.0
 42
1.0
  0
VERTEX
  8
DRD
 10
0.6485
 20
0.9910
 30
 0.0
 42
1.0
  0
SEQEND
  8
DRD
  0
POLYLINE
  8
DRD
 66
      1
 70
0
 40
0.0100
 41
0.0100
  0
VERTEX
  8
DRD
 10
0.6210
 20
0.9660
 30
 0.0
  0
VERTEX
  8
DRD
 10
0.6710
 20
0.9660
 30
 0.0
  0
SEQEND
  8
DRD
  0
POLYLINE
  8
DRD
 66
      1
 70
1
 40
0.0050
 41
0.0050
  0
VERTEX
  8
DRD
 10
0.6185
 20
0.9660
 30
 0.0
 42
1.0
  0
VERTEX
  8
DRD
 10
0.6235
 20
0.9660
 30
 0.0
 42
1.0
  0
SEQEND
  8
DRD
  0
POLYLINE
  8
DRD
 66
      1
 70
1
 40
0.0050
 41
0.0050
  0
VERTEX
  8
DRD
 10
0.6685
 20
0.9660
 30
 0.0
 42
1.0
  0
VERTEX
  8
DRD
 10
0.6735
 20
0.9660
 30
 0.0
 42
1.0
  0
SEQEND
  8
DRD
  0
POLYLINE
  8
DRD
 66
      1
 70
0
 40
0.0100
 41
0.0100
  0
VERTEX
  8
DRD
 10
0.8460
 20
0.9410
 30
 0.0
  0
VERTEX
  8
DRD
 10
0.8460
 20
0.9910
 30
 0.0
  0
SEQEND
  8
DRD
  0
POLYLINE
  8
DRD
 66
      1
 70
1
 40
0.0050
 41
0.0050
  0
VERTEX
  8
DRD
 10
0.8435
 20
0.9410
 30
 0.0
 42
1.0
  0
VERTEX
  8
DRD
 10
0.8485
 20
0.9410
 30
 0.0
 42
1.0
  0
SEQEND
  8
DRD
  0
POLYLINE
  8
DRD
 66
      1
 70
1
 40
0.0050
 41
0.0050
  0
VERTEX
  8
DRD
 10
0.8435
 20
0.9910
 30
 0.0
 42
1.0
  0
VERTEX
  8
DRD
 10
0.8485
 20
0.9910
 30
 0.0
 42
1.0
  0
SEQEND
  8
DRD
  0
POLYLINE
  8
DRD
 66
      1
 70
0
 40
0.0100
 41
0.0100
  0
VERTEX
  8
DRD
 10
0.8210
 20
0.9660
 30
 0.0
  0
VERTEX
  8
DRD
 10
0.8710
 20
0.9660
 30
 0.0
  0
SEQEND
  8
DRD
  0
POLYLINE
  8
DRD
 66
      1
 70
1
 40
0.0050
 41
0.0050
  0
VERTEX
  8
DRD
 10
0.8185
 20
0.9660
 30
 0.0
 42
1.0
  0
VERTEX
  8
DRD
 10
0.8235
 20
0.9660
 30
 0.0
 42
1.0
  0
SEQEND
  8
DRD
  0
POLYLINE
  8
DRD
 66
      1
 70
1
 40
0.0050
 41
0.0050
  0
VERTEX
  8
DRD
 10
0.8685
 20
0.9660
 30
 0.0
 42
1.0
  0
VERTEX
  8
DRD
 10
0.8735
 20
0.9660
 30
 0.0
 42
1.0
  0
SEQEND
  8
DRD
  0
POLYLINE
  8
DRD
 66
      1
 70
0
 40
0.0100
 41
0.0100
  0
VERTEX
  8
DRD
 10
2.5820
 20
1.0660
 30
 0.0
  0
VERTEX
  8
DRD
 10
2.5820
 20
1.1160
 30
 0.0
  0
SEQEND
  8
DRD
  0
POLYLINE
  8
DRD
 66
      1
 70
1
 40
0.0050
 41
0.0050
  0
VERTEX
  8
DRD
 10
2.5795
 20
1.0660
 30
 0.0
 42
1.0
  0
VERTEX
  8
DRD
 10
2.5845
 20
1.0660
 30
 0.0
 42
1.0
  0
SEQEND
  8
DRD
  0
POLYLINE
  8
DRD
 66
      1
 70
1
 40
0.0050
 41
0.0050
  0
VERTEX
  8
DRD
 10
2.5795
 20
1.1160
 30
 0.0
 42
1.0
  0
VERTEX
  8
DRD
 10
2.5845
 20
1.1160
 30
 0.0
 42
1.0
  0
SEQEND
  8
DRD
  0
POLYLINE
  8
DRD
 66
      1
 70
0
 40
0.0100
 41
0.0100
  0
VERTEX
  8
DRD
 10
2.5570
 20
1.0910
 30
 0.0
  0
VERTEX
  8
DRD
 10
2.6070
 20
1.0910
 30
 0.0
  0
SEQEND
  8
DRD
  0
POLYLINE
  8
DRD
 66
      1
 70
1
 40
0.0050
 41
0.0050
  0
VERTEX
  8
DRD
 10
2.5545
 20
1.0910
 30
 0.0
 42
1.0
  0
VERTEX
  8
DRD
 10
2.5595
 20
1.0910
 30
 0.0
 42
1.0
  0
SEQEND
  8
DRD
  0
POLYLINE
  8
DRD
 66
      1
 70
1
 40
0.0050
 41
0.0050
  0
VERTEX
  8
DRD
 10
2.6045
 20
1.0910
 30
 0.0
 42
1.0
  0
VERTEX
  8
DRD
 10
2.6095
 20
1.0910
 30
 0.0
 42
1.0
  0
SEQEND
  8
DRD
  0
POLYLINE
  8
DRD
 66
      1
 70
0
 40
0.0100
 41
0.0100
  0
VERTEX
  8
DRD
 10
2.7820
 20
1.0660
 30
 0.0
  0
VERTEX
  8
DRD
 10
2.7820
 20
1.1160
 30
 0.0
  0
SEQEND
  8
DRD
  0
POLYLINE
  8
DRD
 66
      1
 70
1
 40
0.0050
 41
0.0050
  0
VERTEX
  8
DRD
 10
2.7795
 20
1.0660
 30
 0.0
 42
1.0
  0
VERTEX
  8
DRD
 10
2.7845
 20
1.0660
 30
 0.0
 42
1.0
  0
SEQEND
  8
DRD
  0
POLYLINE
  8
DRD
 66
      1
 70
1
 40
0.0050
 41
0.0050
  0
VERTEX
  8
DRD
 10
2.7795
 20
1.1160
 30
 0.0
 42
1.0
  0
VERTEX
  8
DRD
 10
2.7845
 20
1.1160
 30
 0.0
 42
1.0
  0
SEQEND
  8
DRD
  0
POLYLINE
  8
DRD
 66
      1
 70
0
 40
0.0100
 41
0.0100
  0
VERTEX
  8
DRD
 10
2.7570
 20
1.0910
 30
 0.0
  0
VERTEX
  8
DRD
 10
2.8070
 20
1.0910
 30
 0.0
  0
SEQEND
  8
DRD
  0
POLYLINE
  8
DRD
 66
      1
 70
1
 40
0.0050
 41
0.0050
  0
VERTEX
  8
DRD
 10
2.7545
 20
1.0910
 30
 0.0
 42
1.0
  0
VERTEX
  8
DRD
 10
2.7595
 20
1.0910
 30
 0.0
 42
1.0
  0
SEQEND
  8
DRD
  0
POLYLINE
  8
DRD
 66
      1
 70
1
 40
0.0050
 41
0.0050
  0
VERTEX
  8
DRD
 10
2.8045
 20
1.0910
 30
 0.0
 42
1.0
  0
VERTEX
  8
DRD
 10
2.8095
 20
1.0910
 30
 0.0
 42
1.0
  0
SEQEND
  8
DRD
  0
POLYLINE
  8
DRD
 66
      1
 70
0
 40
0.0100
 41
0.0100
  0
VERTEX
  8
DRD
 10
2.5810
 20
0.7450
 30
 0.0
  0
VERTEX
  8
DRD
 10
2.5810
 20
0.7950
 30
 0.0
  0
SEQEND
  8
DRD
  0
POLYLINE
  8
DRD
 66
      1
 70
1
 40
0.0050
 41
0.0050
  0
VERTEX
  8
DRD
 10
2.5785
 20
0.7450
 30
 0.0
 42
1.0
  0
VERTEX
  8
DRD
 10
2.5835
 20
0.7450
 30
 0.0
 42
1.0
  0
SEQEND
  8
DRD
  0
POLYLINE
  8
DRD
 66
      1
 70
1
 40
0.0050
 41
0.0050
  0
VERTEX
  8
DRD
 10
2.5785
 20
0.7950
 30
 0.0
 42
1.0
  0
VERTEX
  8
DRD
 10
2.5835
 20
0.7950
 30
 0.0
 42
1.0
  0
SEQEND
  8
DRD
  0
POLYLINE
  8
DRD
 66
      1
 70
0
 40
0.0100
 41
0.0100
  0
VERTEX
  8
DRD
 10
2.5560
 20
0.7700
 30
 0.0
  0
VERTEX
  8
DRD
 10
2.6060
 20
0.7700
 30
 0.0
  0
SEQEND
  8
DRD
  0
POLYLINE
  8
DRD
 66
      1
 70
1
 40
0.0050
 41
0.0050
  0
VERTEX
  8
DRD
 10
2.5535
 20
0.7700
 30
 0.0
 42
1.0
  0
VERTEX
  8
DRD
 10
2.5585
 20
0.7700
 30
 0.0
 42
1.0
  0
SEQEND
  8
DRD
  0
POLYLINE
  8
DRD
 66
      1
 70
1
 40
0.0050
 41
0.0050
  0
VERTEX
  8
DRD
 10
2.6035
 20
0.7700
 30
 0.0
 42
1.0
  0
VERTEX
  8
DRD
 10
2.6085
 20
0.7700
 30
 0.0
 42
1.0
  0
SEQEND
  8
DRD
  0
POLYLINE
  8
DRD
 66
      1
 70
0
 40
0.0100
 41
0.0100
  0
VERTEX
  8
DRD
 10
2.7810
 20
0.7450
 30
 0.0
  0
VERTEX
  8
DRD
 10
2.7810
 20
0.7950
 30
 0.0
  0
SEQEND
  8
DRD
  0
POLYLINE
  8
DRD
 66
      1
 70
1
 40
0.0050
 41
0.0050
  0
VERTEX
  8
DRD
 10
2.7785
 20
0.7450
 30
 0.0
 42
1.0
  0
VERTEX
  8
DRD
 10
2.7835
 20
0.7450
 30
 0.0
 42
1.0
  0
SEQEND
  8
DRD
  0
POLYLINE
  8
DRD
 66
      1
 70
1
 40
0.0050
 41
0.0050
  0
VERTEX
  8
DRD
 10
2.7785
 20
0.7950
 30
 0.0
 42
1.0
  0
VERTEX
  8
DRD
 10
2.7835
 20
0.7950
 30
 0.0
 42
1.0
  0
SEQEND
  8
DRD
  0
POLYLINE
  8
DRD
 66
      1
 70
0
 40
0.0100
 41
0.0100
  0
VERTEX
  8
DRD
 10
2.7560
 20
0.7700
 30
 0.0
  0
VERTEX
  8
DRD
 10
2.8060
 20
0.7700
 30
 0.0
  0
SEQEND
  8
DRD
  0
POLYLINE
  8
DRD
 66
      1
 70
1
 40
0.0050
 41
0.0050
  0
VERTEX
  8
DRD
 10
2.7535
 20
0.7700
 30
 0.0
 42
1.0
  0
VERTEX
  8
DRD
 10
2.7585
 20
0.7700
 30
 0.0
 42
1.0
  0
SEQEND
  8
DRD
  0
POLYLINE
  8
DRD
 66
      1
 70
1
 40
0.0050
 41
0.0050
  0
VERTEX
  8
DRD
 10
2.8035
 20
0.7700
 30
 0.0
 42
1.0
  0
VERTEX
  8
DRD
 10
2.8085
 20
0.7700
 30
 0.0
 42
1.0
  0
SEQEND
  8
DRD
  0
POLYLINE
  8
DRD
 66
      1
 70
0
 40
0.0100
 41
0.0100
  0
VERTEX
  8
DRD
 10
2.6320
 20
1.4390
 30
 0.0
  0
VERTEX
  8
DRD
 10
2.6070
 20
1.4640
 30
 0.0
  0
SEQEND
  8
DRD
  0
POLYLINE
  8
DRD
 66
      1
 70
1
 40
0.0050
 41
0.0050
  0
VERTEX
  8
DRD
 10
2.6295
 20
1.4390
 30
 0.0
 42
1.0
  0
VERTEX
  8
DRD
 10
2.6345
 20
1.4390
 30
 0.0
 42
1.0
  0
SEQEND
  8
DRD
  0
POLYLINE
  8
DRD
 66
      1
 70
1
 40
0.0050
 41
0.0050
  0
VERTEX
  8
DRD
 10
2.6045
 20
1.4640
 30
 0.0
 42
1.0
  0
VERTEX
  8
DRD
 10
2.6095
 20
1.4640
 30
 0.0
 42
1.0
  0
SEQEND
  8
DRD
  0
POLYLINE
  8
DRD
 66
      1
 70
0
 40
0.0100
 41
0.0100
  0
VERTEX
  8
DRD
 10
2.6570
 20
1.4640
 30
 0.0
  0
VERTEX
  8
DRD
 10
2.6320
 20
1.4390
 30
 0.0
  0
SEQEND
  8
DRD
  0
POLYLINE
  8
DRD
 66
      1
 70
1
 40
0.0050
 41
0.0050
  0
VERTEX
  8
DRD
 10
2.6545
 20
1.4640
 30
 0.0
 42
1.0
  0
VERTEX
  8
DRD
 10
2.6595
 20
1.4640
 30
 0.0
 42
1.0
  0
SEQEND
  8
DRD
  0
POLYLINE
  8
DRD
 66
      1
 70
1
 40
0.0050
 41
0.0050
  0
VERTEX
  8
DRD
 10
2.6295
 20
1.4390
 30
 0.0
 42
1.0
  0
VERTEX
  8
DRD
 10
2.6345
 20
1.4390
 30
 0.0
 42
1.0
  0
SEQEND
  8
DRD
  0
POLYLINE
  8
DRD
 66
      1
 70
0
 40
0.0100
 41
0.0100
  0
VERTEX
  8
DRD
 10
2.6320
 20
1.4890
 30
 0.0
  0
VERTEX
  8
DRD
 10
2.6570
 20
1.4640
 30
 0.0
  0
SEQEND
  8
DRD
  0
POLYLINE
  8
DRD
 66
      1
 70
1
 40
0.0050
 41
0.0050
  0
VERTEX
  8
DRD
 10
2.6295
 20
1.4890
 30
 0.0
 42
1.0
  0
VERTEX
  8
DRD
 10
2.6345
 20
1.4890
 30
 0.0
 42
1.0
  0
SEQEND
  8
DRD
  0
POLYLINE
  8
DRD
 66
      1
 70
1
 40
0.0050
 41
0.0050
  0
VERTEX
  8
DRD
 10
2.6545
 20
1.4640
 30
 0.0
 42
1.0
  0
VERTEX
  8
DRD
 10
2.6595
 20
1.4640
 30
 0.0
 42
1.0
  0
SEQEND
  8
DRD
  0
POLYLINE
  8
DRD
 66
      1
 70
0
 40
0.0100
 41
0.0100
  0
VERTEX
  8
DRD
 10
2.6070
 20
1.4640
 30
 0.0
  0
VERTEX
  8
DRD
 10
2.6320
 20
1.4890
 30
 0.0
  0
SEQEND
  8
DRD
  0
POLYLINE
  8
DRD
 66
      1
 70
1
 40
0.0050
 41
0.0050
  0
VERTEX
  8
DRD
 10
2.6045
 20
1.4640
 30
 0.0
 42
1.0
  0
VERTEX
  8
DRD
 10
2.6095
 20
1.4640
 30
 0.0
 42
1.0
  0
SEQEND
  8
DRD
  0
POLYLINE
  8
DRD
 66
      1
 70
1
 40
0.0050
 41
0.0050
  0
VERTEX
  8
DRD
 10
2.6295
 20
1.4890
 30
 0.0
 42
1.0
  0
VERTEX
  8
DRD
 10
2.6345
 20
1.4890
 30
 0.0
 42
1.0
  0
SEQEND
  8
DRD
  0
POLYLINE
  8
DRD
 66
      1
 70
0
 40
0.0100
 41
0.0100
  0
VERTEX
  8
DRD
 10
2.6320
 20
1.3960
 30
 0.0
  0
VERTEX
  8
DRD
 10
2.6070
 20
1.4210
 30
 0.0
  0
SEQEND
  8
DRD
  0
POLYLINE
  8
DRD
 66
      1
 70
1
 40
0.0050
 41
0.0050
  0
VERTEX
  8
DRD
 10
2.6295
 20
1.3960
 30
 0.0
 42
1.0
  0
VERTEX
  8
DRD
 10
2.6345
 20
1.3960
 30
 0.0
 42
1.0
  0
SEQEND
  8
DRD
  0
POLYLINE
  8
DRD
 66
      1
 70
1
 40
0.0050
 41
0.0050
  0
VERTEX
  8
DRD
 10
2.6045
 20
1.4210
 30
 0.0
 42
1.0
  0
VERTEX
  8
DRD
 10
2.6095
 20
1.4210
 30
 0.0
 42
1.0
  0
SEQEND
  8
DRD
  0
POLYLINE
  8
DRD
 66
      1
 70
0
 40
0.0100
 41
0.0100
  0
VERTEX
  8
DRD
 10
2.6570
 20
1.4210
 30
 0.0
  0
VERTEX
  8
DRD
 10
2.6320
 20
1.3960
 30
 0.0
  0
SEQEND
  8
DRD
  0
POLYLINE
  8
DRD
 66
      1
 70
1
 40
0.0050
 41
0.0050
  0
VERTEX
  8
DRD
 10
2.6545
 20
1.4210
 30
 0.0
 42
1.0
  0
VERTEX
  8
DRD
 10
2.6595
 20
1.4210
 30
 0.0
 42
1.0
  0
SEQEND
  8
DRD
  0
POLYLINE
  8
DRD
 66
      1
 70
1
 40
0.0050
 41
0.0050
  0
VERTEX
  8
DRD
 10
2.6295
 20
1.3960
 30
 0.0
 42
1.0
  0
VERTEX
  8
DRD
 10
2.6345
 20
1.3960
 30
 0.0
 42
1.0
  0
SEQEND
  8
DRD
  0
POLYLINE
  8
DRD
 66
      1
 70
0
 40
0.0100
 41
0.0100
  0
VERTEX
  8
DRD
 10
2.6320
 20
1.4460
 30
 0.0
  0
VERTEX
  8
DRD
 10
2.6570
 20
1.4210
 30
 0.0
  0
SEQEND
  8
DRD
  0
POLYLINE
  8
DRD
 66
      1
 70
1
 40
0.0050
 41
0.0050
  0
VERTEX
  8
DRD
 10
2.6295
 20
1.4460
 30
 0.0
 42
1.0
  0
VERTEX
  8
DRD
 10
2.6345
 20
1.4460
 30
 0.0
 42
1.0
  0
SEQEND
  8
DRD
  0
POLYLINE
  8
DRD
 66
      1
 70
1
 40
0.0050
 41
0.0050
  0
VERTEX
  8
DRD
 10
2.6545
 20
1.4210
 30
 0.0
 42
1.0
  0
VERTEX
  8
DRD
 10
2.6595
 20
1.4210
 30
 0.0
 42
1.0
  0
SEQEND
  8
DRD
  0
POLYLINE
  8
DRD
 66
      1
 70
0
 40
0.0100
 41
0.0100
  0
VERTEX
  8
DRD
 10
2.6070
 20
1.4210
 30
 0.0
  0
VERTEX
  8
DRD
 10
2.6320
 20
1.4460
 30
 0.0
  0
SEQEND
  8
DRD
  0
POLYLINE
  8
DRD
 66
      1
 70
1
 40
0.0050
 41
0.0050
  0
VERTEX
  8
DRD
 10
2.6045
 20
1.4210
 30
 0.0
 42
1.0
  0
VERTEX
  8
DRD
 10
2.6095
 20
1.4210
 30
 0.0
 42
1.0
  0
SEQEND
  8
DRD
  0
POLYLINE
  8
DRD
 66
      1
 70
1
 40
0.0050
 41
0.0050
  0
VERTEX
  8
DRD
 10
2.6295
 20
1.4460
 30
 0.0
 42
1.0
  0
VERTEX
  8
DRD
 10
2.6345
 20
1.4460
 30
 0.0
 42
1.0
  0
SEQEND
  8
DRD
  0
POLYLINE
  8
DRD
 66
      1
 70
0
 40
0.0100
 41
0.0100
  0
VERTEX
  8
DRD
 10
2.7220
 20
1.4380
 30
 0.0
  0
VERTEX
  8
DRD
 10
2.6970
 20
1.4630
 30
 0.0
  0
SEQEND
  8
DRD
  0
POLYLINE
  8
DRD
 66
      1
 70
1
 40
0.0050
 41
0.0050
  0
VERTEX
  8
DRD
 10
2.7195
 20
1.4380
 30
 0.0
 42
1.0
  0
VERTEX
  8
DRD
 10
2.7245
 20
1.4380
 30
 0.0
 42
1.0
  0
SEQEND
  8
DRD
  0
POLYLINE
  8
DRD
 66
      1
 70
1
 40
0.0050
 41
0.0050
  0
VERTEX
  8
DRD
 10
2.6945
 20
1.4630
 30
 0.0
 42
1.0
  0
VERTEX
  8
DRD
 10
2.6995
 20
1.4630
 30
 0.0
 42
1.0
  0
SEQEND
  8
DRD
  0
POLYLINE
  8
DRD
 66
      1
 70
0
 40
0.0100
 41
0.0100
  0
VERTEX
  8
DRD
 10
2.7470
 20
1.4630
 30
 0.0
  0
VERTEX
  8
DRD
 10
2.7220
 20
1.4380
 30
 0.0
  0
SEQEND
  8
DRD
  0
POLYLINE
  8
DRD
 66
      1
 70
1
 40
0.0050
 41
0.0050
  0
VERTEX
  8
DRD
 10
2.7445
 20
1.4630
 30
 0.0
 42
1.0
  0
VERTEX
  8
DRD
 10
2.7495
 20
1.4630
 30
 0.0
 42
1.0
  0
SEQEND
  8
DRD
  0
POLYLINE
  8
DRD
 66
      1
 70
1
 40
0.0050
 41
0.0050
  0
VERTEX
  8
DRD
 10
2.7195
 20
1.4380
 30
 0.0
 42
1.0
  0
VERTEX
  8
DRD
 10
2.7245
 20
1.4380
 30
 0.0
 42
1.0
  0
SEQEND
  8
DRD
  0
POLYLINE
  8
DRD
 66
      1
 70
0
 40
0.0100
 41
0.0100
  0
VERTEX
  8
DRD
 10
2.7220
 20
1.4880
 30
 0.0
  0
VERTEX
  8
DRD
 10
2.7470
 20
1.4630
 30
 0.0
  0
SEQEND
  8
DRD
  0
POLYLINE
  8
DRD
 66
      1
 70
1
 40
0.0050
 41
0.0050
  0
VERTEX
  8
DRD
 10
2.7195
 20
1.4880
 30
 0.0
 42
1.0
  0
VERTEX
  8
DRD
 10
2.7245
 20
1.4880
 30
 0.0
 42
1.0
  0
SEQEND
  8
DRD
  0
POLYLINE
  8
DRD
 66
      1
 70
1
 40
0.0050
 41
0.0050
  0
VERTEX
  8
DRD
 10
2.7445
 20
1.4630
 30
 0.0
 42
1.0
  0
VERTEX
  8
DRD
 10
2.7495
 20
1.4630
 30
 0.0
 42
1.0
  0
SEQEND
  8
DRD
  0
POLYLINE
  8
DRD
 66
      1
 70
0
 40
0.0100
 41
0.0100
  0
VERTEX
  8
DRD
 10
2.6970
 20
1.4630
 30
 0.0
  0
VERTEX
  8
DRD
 10
2.7220
 20
1.4880
 30
 0.0
  0
SEQEND
  8
DRD
  0
POLYLINE
  8
DRD
 66
      1
 70
1
 40
0.0050
 41
0.0050
  0
VERTEX
  8
DRD
 10
2.6945
 20
1.4630
 30
 0.0
 42
1.0
  0
VERTEX
  8
DRD
 10
2.6995
 20
1.4630
 30
 0.0
 42
1.0
  0
SEQEND
  8
DRD
  0
POLYLINE
  8
DRD
 66
      1
 70
1
 40
0.0050
 41
0.0050
  0
VERTEX
  8
DRD
 10
2.7195
 20
1.4880
 30
 0.0
 42
1.0
  0
VERTEX
  8
DRD
 10
2.7245
 20
1.4880
 30
 0.0
 42
1.0
  0
SEQEND
  8
DRD
  0
POLYLINE
  8
DRD
 66
      1
 70
0
 40
0.0100
 41
0.0100
  0
VERTEX
  8
DRD
 10
2.8060
 20
1.4370
 30
 0.0
  0
VERTEX
  8
DRD
 10
2.7810
 20
1.4620
 30
 0.0
  0
SEQEND
  8
DRD
  0
POLYLINE
  8
DRD
 66
      1
 70
1
 40
0.0050
 41
0.0050
  0
VERTEX
  8
DRD
 10
2.8035
 20
1.4370
 30
 0.0
 42
1.0
  0
VERTEX
  8
DRD
 10
2.8085
 20
1.4370
 30
 0.0
 42
1.0
  0
SEQEND
  8
DRD
  0
POLYLINE
  8
DRD
 66
      1
 70
1
 40
0.0050
 41
0.0050
  0
VERTEX
  8
DRD
 10
2.7785
 20
1.4620
 30
 0.0
 42
1.0
  0
VERTEX
  8
DRD
 10
2.7835
 20
1.4620
 30
 0.0
 42
1.0
  0
SEQEND
  8
DRD
  0
POLYLINE
  8
DRD
 66
      1
 70
0
 40
0.0100
 41
0.0100
  0
VERTEX
  8
DRD
 10
2.8310
 20
1.4620
 30
 0.0
  0
VERTEX
  8
DRD
 10
2.8060
 20
1.4370
 30
 0.0
  0
SEQEND
  8
DRD
  0
POLYLINE
  8
DRD
 66
      1
 70
1
 40
0.0050
 41
0.0050
  0
VERTEX
  8
DRD
 10
2.8285
 20
1.4620
 30
 0.0
 42
1.0
  0
VERTEX
  8
DRD
 10
2.8335
 20
1.4620
 30
 0.0
 42
1.0
  0
SEQEND
  8
DRD
  0
POLYLINE
  8
DRD
 66
      1
 70
1
 40
0.0050
 41
0.0050
  0
VERTEX
  8
DRD
 10
2.8035
 20
1.4370
 30
 0.0
 42
1.0
  0
VERTEX
  8
DRD
 10
2.8085
 20
1.4370
 30
 0.0
 42
1.0
  0
SEQEND
  8
DRD
  0
POLYLINE
  8
DRD
 66
      1
 70
0
 40
0.0100
 41
0.0100
  0
VERTEX
  8
DRD
 10
2.8060
 20
1.4870
 30
 0.0
  0
VERTEX
  8
DRD
 10
2.8310
 20
1.4620
 30
 0.0
  0
SEQEND
  8
DRD
  0
POLYLINE
  8
DRD
 66
      1
 70
1
 40
0.0050
 41
0.0050
  0
VERTEX
  8
DRD
 10
2.8035
 20
1.4870
 30
 0.0
 42
1.0
  0
VERTEX
  8
DRD
 10
2.8085
 20
1.4870
 30
 0.0
 42
1.0
  0
SEQEND
  8
DRD
  0
POLYLINE
  8
DRD
 66
      1
 70
1
 40
0.0050
 41
0.0050
  0
VERTEX
  8
DRD
 10
2.8285
 20
1.4620
 30
 0.0
 42
1.0
  0
VERTEX
  8
DRD
 10
2.8335
 20
1.4620
 30
 0.0
 42
1.0
  0
SEQEND
  8
DRD
  0
POLYLINE
  8
DRD
 66
      1
 70
0
 40
0.0100
 41
0.0100
  0
VERTEX
  8
DRD
 10
2.7810
 20
1.4620
 30
 0.0
  0
VERTEX
  8
DRD
 10
2.8060
 20
1.4870
 30
 0.0
  0
SEQEND
  8
DRD
  0
POLYLINE
  8
DRD
 66
      1
 70
1
 40
0.0050
 41
0.0050
  0
VERTEX
  8
DRD
 10
2.7785
 20
1.4620
 30
 0.0
 42
1.0
  0
VERTEX
  8
DRD
 10
2.7835
 20
1.4620
 30
 0.0
 42
1.0
  0
SEQEND
  8
DRD
  0
POLYLINE
  8
DRD
 66
      1
 70
1
 40
0.0050
 41
0.0050
  0
VERTEX
  8
DRD
 10
2.8035
 20
1.4870
 30
 0.0
 42
1.0
  0
VERTEX
  8
DRD
 10
2.8085
 20
1.4870
 30
 0.0
 42
1.0
  0
SEQEND
  8
DRD
  0
POLYLINE
  8
DRD
 66
      1
 70
0
 40
0.0100
 41
0.0100
  0
VERTEX
  8
DRD
 10
2.7220
 20
1.3960
 30
 0.0
  0
VERTEX
  8
DRD
 10
2.6970
 20
1.4210
 30
 0.0
  0
SEQEND
  8
DRD
  0
POLYLINE
  8
DRD
 66
      1
 70
1
 40
0.0050
 41
0.0050
  0
VERTEX
  8
DRD
 10
2.7195
 20
1.3960
 30
 0.0
 42
1.0
  0
VERTEX
  8
DRD
 10
2.7245
 20
1.3960
 30
 0.0
 42
1.0
  0
SEQEND
  8
DRD
  0
POLYLINE
  8
DRD
 66
      1
 70
1
 40
0.0050
 41
0.0050
  0
VERTEX
  8
DRD
 10
2.6945
 20
1.4210
 30
 0.0
 42
1.0
  0
VERTEX
  8
DRD
 10
2.6995
 20
1.4210
 30
 0.0
 42
1.0
  0
SEQEND
  8
DRD
  0
POLYLINE
  8
DRD
 66
      1
 70
0
 40
0.0100
 41
0.0100
  0
VERTEX
  8
DRD
 10
2.7470
 20
1.4210
 30
 0.0
  0
VERTEX
  8
DRD
 10
2.7220
 20
1.3960
 30
 0.0
  0
SEQEND
  8
DRD
  0
POLYLINE
  8
DRD
 66
      1
 70
1
 40
0.0050
 41
0.0050
  0
VERTEX
  8
DRD
 10
2.7445
 20
1.4210
 30
 0.0
 42
1.0
  0
VERTEX
  8
DRD
 10
2.7495
 20
1.4210
 30
 0.0
 42
1.0
  0
SEQEND
  8
DRD
  0
POLYLINE
  8
DRD
 66
      1
 70
1
 40
0.0050
 41
0.0050
  0
VERTEX
  8
DRD
 10
2.7195
 20
1.3960
 30
 0.0
 42
1.0
  0
VERTEX
  8
DRD
 10
2.7245
 20
1.3960
 30
 0.0
 42
1.0
  0
SEQEND
  8
DRD
  0
POLYLINE
  8
DRD
 66
      1
 70
0
 40
0.0100
 41
0.0100
  0
VERTEX
  8
DRD
 10
2.7220
 20
1.4460
 30
 0.0
  0
VERTEX
  8
DRD
 10
2.7470
 20
1.4210
 30
 0.0
  0
SEQEND
  8
DRD
  0
POLYLINE
  8
DRD
 66
      1
 70
1
 40
0.0050
 41
0.0050
  0
VERTEX
  8
DRD
 10
2.7195
 20
1.4460
 30
 0.0
 42
1.0
  0
VERTEX
  8
DRD
 10
2.7245
 20
1.4460
 30
 0.0
 42
1.0
  0
SEQEND
  8
DRD
  0
POLYLINE
  8
DRD
 66
      1
 70
1
 40
0.0050
 41
0.0050
  0
VERTEX
  8
DRD
 10
2.7445
 20
1.4210
 30
 0.0
 42
1.0
  0
VERTEX
  8
DRD
 10
2.7495
 20
1.4210
 30
 0.0
 42
1.0
  0
SEQEND
  8
DRD
  0
POLYLINE
  8
DRD
 66
      1
 70
0
 40
0.0100
 41
0.0100
  0
VERTEX
  8
DRD
 10
2.6970
 20
1.4210
 30
 0.0
  0
VERTEX
  8
DRD
 10
2.7220
 20
1.4460
 30
 0.0
  0
SEQEND
  8
DRD
  0
POLYLINE
  8
DRD
 66
      1
 70
1
 40
0.0050
 41
0.0050
  0
VERTEX
  8
DRD
 10
2.6945
 20
1.4210
 30
 0.0
 42
1.0
  0
VERTEX
  8
DRD
 10
2.6995
 20
1.4210
 30
 0.0
 42
1.0
  0
SEQEND
  8
DRD
  0
POLYLINE
  8
DRD
 66
      1
 70
1
 40
0.0050
 41
0.0050
  0
VERTEX
  8
DRD
 10
2.7195
 20
1.4460
 30
 0.0
 42
1.0
  0
VERTEX
  8
DRD
 10
2.7245
 20
1.4460
 30
 0.0
 42
1.0
  0
SEQEND
  8
DRD
  0
POLYLINE
  8
DRD
 66
      1
 70
0
 40
0.0100
 41
0.0100
  0
VERTEX
  8
DRD
 10
2.8060
 20
1.3960
 30
 0.0
  0
VERTEX
  8
DRD
 10
2.7810
 20
1.4210
 30
 0.0
  0
SEQEND
  8
DRD
  0
POLYLINE
  8
DRD
 66
      1
 70
1
 40
0.0050
 41
0.0050
  0
VERTEX
  8
DRD
 10
2.8035
 20
1.3960
 30
 0.0
 42
1.0
  0
VERTEX
  8
DRD
 10
2.8085
 20
1.3960
 30
 0.0
 42
1.0
  0
SEQEND
  8
DRD
  0
POLYLINE
  8
DRD
 66
      1
 70
1
 40
0.0050
 41
0.0050
  0
VERTEX
  8
DRD
 10
2.7785
 20
1.4210
 30
 0.0
 42
1.0
  0
VERTEX
  8
DRD
 10
2.7835
 20
1.4210
 30
 0.0
 42
1.0
  0
SEQEND
  8
DRD
  0
POLYLINE
  8
DRD
 66
      1
 70
0
 40
0.0100
 41
0.0100
  0
VERTEX
  8
DRD
 10
2.8310
 20
1.4210
 30
 0.0
  0
VERTEX
  8
DRD
 10
2.8060
 20
1.3960
 30
 0.0
  0
SEQEND
  8
DRD
  0
POLYLINE
  8
DRD
 66
      1
 70
1
 40
0.0050
 41
0.0050
  0
VERTEX
  8
DRD
 10
2.8285
 20
1.4210
 30
 0.0
 42
1.0
  0
VERTEX
  8
DRD
 10
2.8335
 20
1.4210
 30
 0.0
 42
1.0
  0
SEQEND
  8
DRD
  0
POLYLINE
  8
DRD
 66
      1
 70
1
 40
0.0050
 41
0.0050
  0
VERTEX
  8
DRD
 10
2.8035
 20
1.3960
 30
 0.0
 42
1.0
  0
VERTEX
  8
DRD
 10
2.8085
 20
1.3960
 30
 0.0
 42
1.0
  0
SEQEND
  8
DRD
  0
POLYLINE
  8
DRD
 66
      1
 70
0
 40
0.0100
 41
0.0100
  0
VERTEX
  8
DRD
 10
2.8060
 20
1.4460
 30
 0.0
  0
VERTEX
  8
DRD
 10
2.8310
 20
1.4210
 30
 0.0
  0
SEQEND
  8
DRD
  0
POLYLINE
  8
DRD
 66
      1
 70
1
 40
0.0050
 41
0.0050
  0
VERTEX
  8
DRD
 10
2.8035
 20
1.4460
 30
 0.0
 42
1.0
  0
VERTEX
  8
DRD
 10
2.8085
 20
1.4460
 30
 0.0
 42
1.0
  0
SEQEND
  8
DRD
  0
POLYLINE
  8
DRD
 66
      1
 70
1
 40
0.0050
 41
0.0050
  0
VERTEX
  8
DRD
 10
2.8285
 20
1.4210
 30
 0.0
 42
1.0
  0
VERTEX
  8
DRD
 10
2.8335
 20
1.4210
 30
 0.0
 42
1.0
  0
SEQEND
  8
DRD
  0
POLYLINE
  8
DRD
 66
      1
 70
0
 40
0.0100
 41
0.0100
  0
VERTEX
  8
DRD
 10
2.7810
 20
1.4210
 30
 0.0
  0
VERTEX
  8
DRD
 10
2.8060
 20
1.4460
 30
 0.0
  0
SEQEND
  8
DRD
  0
POLYLINE
  8
DRD
 66
      1
 70
1
 40
0.0050
 41
0.0050
  0
VERTEX
  8
DRD
 10
2.7785
 20
1.4210
 30
 0.0
 42
1.0
  0
VERTEX
  8
DRD
 10
2.7835
 20
1.4210
 30
 0.0
 42
1.0
  0
SEQEND
  8
DRD
  0
POLYLINE
  8
DRD
 66
      1
 70
1
 40
0.0050
 41
0.0050
  0
VERTEX
  8
DRD
 10
2.8035
 20
1.4460
 30
 0.0
 42
1.0
  0
VERTEX
  8
DRD
 10
2.8085
 20
1.4460
 30
 0.0
 42
1.0
  0
SEQEND
  8
DRD
  0
POLYLINE
  8
DRD
 66
      1
 70
0
 40
0.0100
 41
0.0100
  0
VERTEX
  8
DRD
 10
2.2890
 20
0.8760
 30
 0.0
  0
VERTEX
  8
DRD
 10
2.2640
 20
0.9010
 30
 0.0
  0
SEQEND
  8
DRD
  0
POLYLINE
  8
DRD
 66
      1
 70
1
 40
0.0050
 41
0.0050
  0
VERTEX
  8
DRD
 10
2.2865
 20
0.8760
 30
 0.0
 42
1.0
  0
VERTEX
  8
DRD
 10
2.2915
 20
0.8760
 30
 0.0
 42
1.0
  0
SEQEND
  8
DRD
  0
POLYLINE
  8
DRD
 66
      1
 70
1
 40
0.0050
 41
0.0050
  0
VERTEX
  8
DRD
 10
2.2615
 20
0.9010
 30
 0.0
 42
1.0
  0
VERTEX
  8
DRD
 10
2.2665
 20
0.9010
 30
 0.0
 42
1.0
  0
SEQEND
  8
DRD
  0
POLYLINE
  8
DRD
 66
      1
 70
0
 40
0.0100
 41
0.0100
  0
VERTEX
  8
DRD
 10
2.3140
 20
0.9010
 30
 0.0
  0
VERTEX
  8
DRD
 10
2.2890
 20
0.8760
 30
 0.0
  0
SEQEND
  8
DRD
  0
POLYLINE
  8
DRD
 66
      1
 70
1
 40
0.0050
 41
0.0050
  0
VERTEX
  8
DRD
 10
2.3115
 20
0.9010
 30
 0.0
 42
1.0
  0
VERTEX
  8
DRD
 10
2.3165
 20
0.9010
 30
 0.0
 42
1.0
  0
SEQEND
  8
DRD
  0
POLYLINE
  8
DRD
 66
      1
 70
1
 40
0.0050
 41
0.0050
  0
VERTEX
  8
DRD
 10
2.2865
 20
0.8760
 30
 0.0
 42
1.0
  0
VERTEX
  8
DRD
 10
2.2915
 20
0.8760
 30
 0.0
 42
1.0
  0
SEQEND
  8
DRD
  0
POLYLINE
  8
DRD
 66
      1
 70
0
 40
0.0100
 41
0.0100
  0
VERTEX
  8
DRD
 10
2.2890
 20
0.9260
 30
 0.0
  0
VERTEX
  8
DRD
 10
2.3140
 20
0.9010
 30
 0.0
  0
SEQEND
  8
DRD
  0
POLYLINE
  8
DRD
 66
      1
 70
1
 40
0.0050
 41
0.0050
  0
VERTEX
  8
DRD
 10
2.2865
 20
0.9260
 30
 0.0
 42
1.0
  0
VERTEX
  8
DRD
 10
2.2915
 20
0.9260
 30
 0.0
 42
1.0
  0
SEQEND
  8
DRD
  0
POLYLINE
  8
DRD
 66
      1
 70
1
 40
0.0050
 41
0.0050
  0
VERTEX
  8
DRD
 10
2.3115
 20
0.9010
 30
 0.0
 42
1.0
  0
VERTEX
  8
DRD
 10
2.3165
 20
0.9010
 30
 0.0
 42
1.0
  0
SEQEND
  8
DRD
  0
POLYLINE
  8
DRD
 66
      1
 70
0
 40
0.0100
 41
0.0100
  0
VERTEX
  8
DRD
 10
2.2640
 20
0.9010
 30
 0.0
  0
VERTEX
  8
DRD
 10
2.2890
 20
0.9260
 30
 0.0
  0
SEQEND
  8
DRD
  0
POLYLINE
  8
DRD
 66
      1
 70
1
 40
0.0050
 41
0.0050
  0
VERTEX
  8
DRD
 10
2.2615
 20
0.9010
 30
 0.0
 42
1.0
  0
VERTEX
  8
DRD
 10
2.2665
 20
0.9010
 30
 0.0
 42
1.0
  0
SEQEND
  8
DRD
  0
POLYLINE
  8
DRD
 66
      1
 70
1
 40
0.0050
 41
0.0050
  0
VERTEX
  8
DRD
 10
2.2865
 20
0.9260
 30
 0.0
 42
1.0
  0
VERTEX
  8
DRD
 10
2.2915
 20
0.9260
 30
 0.0
 42
1.0
  0
SEQEND
  8
DRD
  0
POLYLINE
  8
DRD
 66
      1
 70
0
 40
0.0100
 41
0.0100
  0
VERTEX
  8
DRD
 10
2.3320
 20
0.8760
 30
 0.0
  0
VERTEX
  8
DRD
 10
2.3070
 20
0.9010
 30
 0.0
  0
SEQEND
  8
DRD
  0
POLYLINE
  8
DRD
 66
      1
 70
1
 40
0.0050
 41
0.0050
  0
VERTEX
  8
DRD
 10
2.3295
 20
0.8760
 30
 0.0
 42
1.0
  0
VERTEX
  8
DRD
 10
2.3345
 20
0.8760
 30
 0.0
 42
1.0
  0
SEQEND
  8
DRD
  0
POLYLINE
  8
DRD
 66
      1
 70
1
 40
0.0050
 41
0.0050
  0
VERTEX
  8
DRD
 10
2.3045
 20
0.9010
 30
 0.0
 42
1.0
  0
VERTEX
  8
DRD
 10
2.3095
 20
0.9010
 30
 0.0
 42
1.0
  0
SEQEND
  8
DRD
  0
POLYLINE
  8
DRD
 66
      1
 70
0
 40
0.0100
 41
0.0100
  0
VERTEX
  8
DRD
 10
2.3570
 20
0.9010
 30
 0.0
  0
VERTEX
  8
DRD
 10
2.3320
 20
0.8760
 30
 0.0
  0
SEQEND
  8
DRD
  0
POLYLINE
  8
DRD
 66
      1
 70
1
 40
0.0050
 41
0.0050
  0
VERTEX
  8
DRD
 10
2.3545
 20
0.9010
 30
 0.0
 42
1.0
  0
VERTEX
  8
DRD
 10
2.3595
 20
0.9010
 30
 0.0
 42
1.0
  0
SEQEND
  8
DRD
  0
POLYLINE
  8
DRD
 66
      1
 70
1
 40
0.0050
 41
0.0050
  0
VERTEX
  8
DRD
 10
2.3295
 20
0.8760
 30
 0.0
 42
1.0
  0
VERTEX
  8
DRD
 10
2.3345
 20
0.8760
 30
 0.0
 42
1.0
  0
SEQEND
  8
DRD
  0
POLYLINE
  8
DRD
 66
      1
 70
0
 40
0.0100
 41
0.0100
  0
VERTEX
  8
DRD
 10
2.3320
 20
0.9260
 30
 0.0
  0
VERTEX
  8
DRD
 10
2.3570
 20
0.9010
 30
 0.0
  0
SEQEND
  8
DRD
  0
POLYLINE
  8
DRD
 66
      1
 70
1
 40
0.0050
 41
0.0050
  0
VERTEX
  8
DRD
 10
2.3295
 20
0.9260
 30
 0.0
 42
1.0
  0
VERTEX
  8
DRD
 10
2.3345
 20
0.9260
 30
 0.0
 42
1.0
  0
SEQEND
  8
DRD
  0
POLYLINE
  8
DRD
 66
      1
 70
1
 40
0.0050
 41
0.0050
  0
VERTEX
  8
DRD
 10
2.3545
 20
0.9010
 30
 0.0
 42
1.0
  0
VERTEX
  8
DRD
 10
2.3595
 20
0.9010
 30
 0.0
 42
1.0
  0
SEQEND
  8
DRD
  0
POLYLINE
  8
DRD
 66
      1
 70
0
 40
0.0100
 41
0.0100
  0
VERTEX
  8
DRD
 10
2.3070
 20
0.9010
 30
 0.0
  0
VERTEX
  8
DRD
 10
2.3320
 20
0.9260
 30
 0.0
  0
SEQEND
  8
DRD
  0
POLYLINE
  8
DRD
 66
      1
 70
1
 40
0.0050
 41
0.0050
  0
VERTEX
  8
DRD
 10
2.3045
 20
0.9010
 30
 0.0
 42
1.0
  0
VERTEX
  8
DRD
 10
2.3095
 20
0.9010
 30
 0.0
 42
1.0
  0
SEQEND
  8
DRD
  0
POLYLINE
  8
DRD
 66
      1
 70
1
 40
0.0050
 41
0.0050
  0
VERTEX
  8
DRD
 10
2.3295
 20
0.9260
 30
 0.0
 42
1.0
  0
VERTEX
  8
DRD
 10
2.3345
 20
0.9260
 30
 0.0
 42
1.0
  0
SEQEND
  8
DRD
  0
POLYLINE
  8
DRD
 66
      1
 70
0
 40
0.0100
 41
0.0100
  0
VERTEX
  8
DRD
 10
2.3260
 20
1.3390
 30
 0.0
  0
VERTEX
  8
DRD
 10
2.3010
 20
1.3640
 30
 0.0
  0
SEQEND
  8
DRD
  0
POLYLINE
  8
DRD
 66
      1
 70
1
 40
0.0050
 41
0.0050
  0
VERTEX
  8
DRD
 10
2.3235
 20
1.3390
 30
 0.0
 42
1.0
  0
VERTEX
  8
DRD
 10
2.3285
 20
1.3390
 30
 0.0
 42
1.0
  0
SEQEND
  8
DRD
  0
POLYLINE
  8
DRD
 66
      1
 70
1
 40
0.0050
 41
0.0050
  0
VERTEX
  8
DRD
 10
2.2985
 20
1.3640
 30
 0.0
 42
1.0
  0
VERTEX
  8
DRD
 10
2.3035
 20
1.3640
 30
 0.0
 42
1.0
  0
SEQEND
  8
DRD
  0
POLYLINE
  8
DRD
 66
      1
 70
0
 40
0.0100
 41
0.0100
  0
VERTEX
  8
DRD
 10
2.3510
 20
1.3640
 30
 0.0
  0
VERTEX
  8
DRD
 10
2.3260
 20
1.3390
 30
 0.0
  0
SEQEND
  8
DRD
  0
POLYLINE
  8
DRD
 66
      1
 70
1
 40
0.0050
 41
0.0050
  0
VERTEX
  8
DRD
 10
2.3485
 20
1.3640
 30
 0.0
 42
1.0
  0
VERTEX
  8
DRD
 10
2.3535
 20
1.3640
 30
 0.0
 42
1.0
  0
SEQEND
  8
DRD
  0
POLYLINE
  8
DRD
 66
      1
 70
1
 40
0.0050
 41
0.0050
  0
VERTEX
  8
DRD
 10
2.3235
 20
1.3390
 30
 0.0
 42
1.0
  0
VERTEX
  8
DRD
 10
2.3285
 20
1.3390
 30
 0.0
 42
1.0
  0
SEQEND
  8
DRD
  0
POLYLINE
  8
DRD
 66
      1
 70
0
 40
0.0100
 41
0.0100
  0
VERTEX
  8
DRD
 10
2.3260
 20
1.3890
 30
 0.0
  0
VERTEX
  8
DRD
 10
2.3510
 20
1.3640
 30
 0.0
  0
SEQEND
  8
DRD
  0
POLYLINE
  8
DRD
 66
      1
 70
1
 40
0.0050
 41
0.0050
  0
VERTEX
  8
DRD
 10
2.3235
 20
1.3890
 30
 0.0
 42
1.0
  0
VERTEX
  8
DRD
 10
2.3285
 20
1.3890
 30
 0.0
 42
1.0
  0
SEQEND
  8
DRD
  0
POLYLINE
  8
DRD
 66
      1
 70
1
 40
0.0050
 41
0.0050
  0
VERTEX
  8
DRD
 10
2.3485
 20
1.3640
 30
 0.0
 42
1.0
  0
VERTEX
  8
DRD
 10
2.3535
 20
1.3640
 30
 0.0
 42
1.0
  0
SEQEND
  8
DRD
  0
POLYLINE
  8
DRD
 66
      1
 70
0
 40
0.0100
 41
0.0100
  0
VERTEX
  8
DRD
 10
2.3010
 20
1.3640
 30
 0.0
  0
VERTEX
  8
DRD
 10
2.3260
 20
1.3890
 30
 0.0
  0
SEQEND
  8
DRD
  0
POLYLINE
  8
DRD
 66
      1
 70
1
 40
0.0050
 41
0.0050
  0
VERTEX
  8
DRD
 10
2.2985
 20
1.3640
 30
 0.0
 42
1.0
  0
VERTEX
  8
DRD
 10
2.3035
 20
1.3640
 30
 0.0
 42
1.0
  0
SEQEND
  8
DRD
  0
POLYLINE
  8
DRD
 66
      1
 70
1
 40
0.0050
 41
0.0050
  0
VERTEX
  8
DRD
 10
2.3235
 20
1.3890
 30
 0.0
 42
1.0
  0
VERTEX
  8
DRD
 10
2.3285
 20
1.3890
 30
 0.0
 42
1.0
  0
SEQEND
  8
DRD
  0
POLYLINE
  8
DRD
 66
      1
 70
0
 40
0.0100
 41
0.0100
  0
VERTEX
  8
DRD
 10
2.2850
 20
1.3390
 30
 0.0
  0
VERTEX
  8
DRD
 10
2.2600
 20
1.3640
 30
 0.0
  0
SEQEND
  8
DRD
  0
POLYLINE
  8
DRD
 66
      1
 70
1
 40
0.0050
 41
0.0050
  0
VERTEX
  8
DRD
 10
2.2825
 20
1.3390
 30
 0.0
 42
1.0
  0
VERTEX
  8
DRD
 10
2.2875
 20
1.3390
 30
 0.0
 42
1.0
  0
SEQEND
  8
DRD
  0
POLYLINE
  8
DRD
 66
      1
 70
1
 40
0.0050
 41
0.0050
  0
VERTEX
  8
DRD
 10
2.2575
 20
1.3640
 30
 0.0
 42
1.0
  0
VERTEX
  8
DRD
 10
2.2625
 20
1.3640
 30
 0.0
 42
1.0
  0
SEQEND
  8
DRD
  0
POLYLINE
  8
DRD
 66
      1
 70
0
 40
0.0100
 41
0.0100
  0
VERTEX
  8
DRD
 10
2.3100
 20
1.3640
 30
 0.0
  0
VERTEX
  8
DRD
 10
2.2850
 20
1.3390
 30
 0.0
  0
SEQEND
  8
DRD
  0
POLYLINE
  8
DRD
 66
      1
 70
1
 40
0.0050
 41
0.0050
  0
VERTEX
  8
DRD
 10
2.3075
 20
1.3640
 30
 0.0
 42
1.0
  0
VERTEX
  8
DRD
 10
2.3125
 20
1.3640
 30
 0.0
 42
1.0
  0
SEQEND
  8
DRD
  0
POLYLINE
  8
DRD
 66
      1
 70
1
 40
0.0050
 41
0.0050
  0
VERTEX
  8
DRD
 10
2.2825
 20
1.3390
 30
 0.0
 42
1.0
  0
VERTEX
  8
DRD
 10
2.2875
 20
1.3390
 30
 0.0
 42
1.0
  0
SEQEND
  8
DRD
  0
POLYLINE
  8
DRD
 66
      1
 70
0
 40
0.0100
 41
0.0100
  0
VERTEX
  8
DRD
 10
2.2850
 20
1.3890
 30
 0.0
  0
VERTEX
  8
DRD
 10
2.3100
 20
1.3640
 30
 0.0
  0
SEQEND
  8
DRD
  0
POLYLINE
  8
DRD
 66
      1
 70
1
 40
0.0050
 41
0.0050
  0
VERTEX
  8
DRD
 10
2.2825
 20
1.3890
 30
 0.0
 42
1.0
  0
VERTEX
  8
DRD
 10
2.2875
 20
1.3890
 30
 0.0
 42
1.0
  0
SEQEND
  8
DRD
  0
POLYLINE
  8
DRD
 66
      1
 70
1
 40
0.0050
 41
0.0050
  0
VERTEX
  8
DRD
 10
2.3075
 20
1.3640
 30
 0.0
 42
1.0
  0
VERTEX
  8
DRD
 10
2.3125
 20
1.3640
 30
 0.0
 42
1.0
  0
SEQEND
  8
DRD
  0
POLYLINE
  8
DRD
 66
      1
 70
0
 40
0.0100
 41
0.0100
  0
VERTEX
  8
DRD
 10
2.2600
 20
1.3640
 30
 0.0
  0
VERTEX
  8
DRD
 10
2.2850
 20
1.3890
 30
 0.0
  0
SEQEND
  8
DRD
  0
POLYLINE
  8
DRD
 66
      1
 70
1
 40
0.0050
 41
0.0050
  0
VERTEX
  8
DRD
 10
2.2575
 20
1.3640
 30
 0.0
 42
1.0
  0
VERTEX
  8
DRD
 10
2.2625
 20
1.3640
 30
 0.0
 42
1.0
  0
SEQEND
  8
DRD
  0
POLYLINE
  8
DRD
 66
      1
 70
1
 40
0.0050
 41
0.0050
  0
VERTEX
  8
DRD
 10
2.2825
 20
1.3890
 30
 0.0
 42
1.0
  0
VERTEX
  8
DRD
 10
2.2875
 20
1.3890
 30
 0.0
 42
1.0
  0
SEQEND
  8
DRD
  0
POLYLINE
  8
DRD
 66
      1
 70
0
 40
0.0100
 41
0.0100
  0
VERTEX
  8
DRD
 10
1.8100
 20
1.3070
 30
 0.0
  0
VERTEX
  8
DRD
 10
1.7850
 20
1.3320
 30
 0.0
  0
SEQEND
  8
DRD
  0
POLYLINE
  8
DRD
 66
      1
 70
1
 40
0.0050
 41
0.0050
  0
VERTEX
  8
DRD
 10
1.8075
 20
1.3070
 30
 0.0
 42
1.0
  0
VERTEX
  8
DRD
 10
1.8125
 20
1.3070
 30
 0.0
 42
1.0
  0
SEQEND
  8
DRD
  0
POLYLINE
  8
DRD
 66
      1
 70
1
 40
0.0050
 41
0.0050
  0
VERTEX
  8
DRD
 10
1.7825
 20
1.3320
 30
 0.0
 42
1.0
  0
VERTEX
  8
DRD
 10
1.7875
 20
1.3320
 30
 0.0
 42
1.0
  0
SEQEND
  8
DRD
  0
POLYLINE
  8
DRD
 66
      1
 70
0
 40
0.0100
 41
0.0100
  0
VERTEX
  8
DRD
 10
1.8350
 20
1.3320
 30
 0.0
  0
VERTEX
  8
DRD
 10
1.8100
 20
1.3070
 30
 0.0
  0
SEQEND
  8
DRD
  0
POLYLINE
  8
DRD
 66
      1
 70
1
 40
0.0050
 41
0.0050
  0
VERTEX
  8
DRD
 10
1.8325
 20
1.3320
 30
 0.0
 42
1.0
  0
VERTEX
  8
DRD
 10
1.8375
 20
1.3320
 30
 0.0
 42
1.0
  0
SEQEND
  8
DRD
  0
POLYLINE
  8
DRD
 66
      1
 70
1
 40
0.0050
 41
0.0050
  0
VERTEX
  8
DRD
 10
1.8075
 20
1.3070
 30
 0.0
 42
1.0
  0
VERTEX
  8
DRD
 10
1.8125
 20
1.3070
 30
 0.0
 42
1.0
  0
SEQEND
  8
DRD
  0
POLYLINE
  8
DRD
 66
      1
 70
0
 40
0.0100
 41
0.0100
  0
VERTEX
  8
DRD
 10
1.8100
 20
1.3570
 30
 0.0
  0
VERTEX
  8
DRD
 10
1.8350
 20
1.3320
 30
 0.0
  0
SEQEND
  8
DRD
  0
POLYLINE
  8
DRD
 66
      1
 70
1
 40
0.0050
 41
0.0050
  0
VERTEX
  8
DRD
 10
1.8075
 20
1.3570
 30
 0.0
 42
1.0
  0
VERTEX
  8
DRD
 10
1.8125
 20
1.3570
 30
 0.0
 42
1.0
  0
SEQEND
  8
DRD
  0
POLYLINE
  8
DRD
 66
      1
 70
1
 40
0.0050
 41
0.0050
  0
VERTEX
  8
DRD
 10
1.8325
 20
1.3320
 30
 0.0
 42
1.0
  0
VERTEX
  8
DRD
 10
1.8375
 20
1.3320
 30
 0.0
 42
1.0
  0
SEQEND
  8
DRD
  0
POLYLINE
  8
DRD
 66
      1
 70
0
 40
0.0100
 41
0.0100
  0
VERTEX
  8
DRD
 10
1.7850
 20
1.3320
 30
 0.0
  0
VERTEX
  8
DRD
 10
1.8100
 20
1.3570
 30
 0.0
  0
SEQEND
  8
DRD
  0
POLYLINE
  8
DRD
 66
      1
 70
1
 40
0.0050
 41
0.0050
  0
VERTEX
  8
DRD
 10
1.7825
 20
1.3320
 30
 0.0
 42
1.0
  0
VERTEX
  8
DRD
 10
1.7875
 20
1.3320
 30
 0.0
 42
1.0
  0
SEQEND
  8
DRD
  0
POLYLINE
  8
DRD
 66
      1
 70
1
 40
0.0050
 41
0.0050
  0
VERTEX
  8
DRD
 10
1.8075
 20
1.3570
 30
 0.0
 42
1.0
  0
VERTEX
  8
DRD
 10
1.8125
 20
1.3570
 30
 0.0
 42
1.0
  0
SEQEND
  8
DRD
  0
POLYLINE
  8
DRD
 66
      1
 70
0
 40
0.0100
 41
0.0100
  0
VERTEX
  8
DRD
 10
2.0420
 20
0.5590
 30
 0.0
  0
VERTEX
  8
DRD
 10
2.0170
 20
0.5840
 30
 0.0
  0
SEQEND
  8
DRD
  0
POLYLINE
  8
DRD
 66
      1
 70
1
 40
0.0050
 41
0.0050
  0
VERTEX
  8
DRD
 10
2.0395
 20
0.5590
 30
 0.0
 42
1.0
  0
VERTEX
  8
DRD
 10
2.0445
 20
0.5590
 30
 0.0
 42
1.0
  0
SEQEND
  8
DRD
  0
POLYLINE
  8
DRD
 66
      1
 70
1
 40
0.0050
 41
0.0050
  0
VERTEX
  8
DRD
 10
2.0145
 20
0.5840
 30
 0.0
 42
1.0
  0
VERTEX
  8
DRD
 10
2.0195
 20
0.5840
 30
 0.0
 42
1.0
  0
SEQEND
  8
DRD
  0
POLYLINE
  8
DRD
 66
      1
 70
0
 40
0.0100
 41
0.0100
  0
VERTEX
  8
DRD
 10
2.0670
 20
0.5840
 30
 0.0
  0
VERTEX
  8
DRD
 10
2.0420
 20
0.5590
 30
 0.0
  0
SEQEND
  8
DRD
  0
POLYLINE
  8
DRD
 66
      1
 70
1
 40
0.0050
 41
0.0050
  0
VERTEX
  8
DRD
 10
2.0645
 20
0.5840
 30
 0.0
 42
1.0
  0
VERTEX
  8
DRD
 10
2.0695
 20
0.5840
 30
 0.0
 42
1.0
  0
SEQEND
  8
DRD
  0
POLYLINE
  8
DRD
 66
      1
 70
1
 40
0.0050
 41
0.0050
  0
VERTEX
  8
DRD
 10
2.0395
 20
0.5590
 30
 0.0
 42
1.0
  0
VERTEX
  8
DRD
 10
2.0445
 20
0.5590
 30
 0.0
 42
1.0
  0
SEQEND
  8
DRD
  0
POLYLINE
  8
DRD
 66
      1
 70
0
 40
0.0100
 41
0.0100
  0
VERTEX
  8
DRD
 10
2.0420
 20
0.6090
 30
 0.0
  0
VERTEX
  8
DRD
 10
2.0670
 20
0.5840
 30
 0.0
  0
SEQEND
  8
DRD
  0
POLYLINE
  8
DRD
 66
      1
 70
1
 40
0.0050
 41
0.0050
  0
VERTEX
  8
DRD
 10
2.0395
 20
0.6090
 30
 0.0
 42
1.0
  0
VERTEX
  8
DRD
 10
2.0445
 20
0.6090
 30
 0.0
 42
1.0
  0
SEQEND
  8
DRD
  0
POLYLINE
  8
DRD
 66
      1
 70
1
 40
0.0050
 41
0.0050
  0
VERTEX
  8
DRD
 10
2.0645
 20
0.5840
 30
 0.0
 42
1.0
  0
VERTEX
  8
DRD
 10
2.0695
 20
0.5840
 30
 0.0
 42
1.0
  0
SEQEND
  8
DRD
  0
POLYLINE
  8
DRD
 66
      1
 70
0
 40
0.0100
 41
0.0100
  0
VERTEX
  8
DRD
 10
2.0170
 20
0.5840
 30
 0.0
  0
VERTEX
  8
DRD
 10
2.0420
 20
0.6090
 30
 0.0
  0
SEQEND
  8
DRD
  0
POLYLINE
  8
DRD
 66
      1
 70
1
 40
0.0050
 41
0.0050
  0
VERTEX
  8
DRD
 10
2.0145
 20
0.5840
 30
 0.0
 42
1.0
  0
VERTEX
  8
DRD
 10
2.0195
 20
0.5840
 30
 0.0
 42
1.0
  0
SEQEND
  8
DRD
  0
POLYLINE
  8
DRD
 66
      1
 70
1
 40
0.0050
 41
0.0050
  0
VERTEX
  8
DRD
 10
2.0395
 20
0.6090
 30
 0.0
 42
1.0
  0
VERTEX
  8
DRD
 10
2.0445
 20
0.6090
 30
 0.0
 42
1.0
  0
SEQEND
  8
DRD
  0
POLYLINE
  8
DRD
 66
      1
 70
0
 40
0.0100
 41
0.0100
  0
VERTEX
  8
DRD
 10
2.0990
 20
0.5590
 30
 0.0
  0
VERTEX
  8
DRD
 10
2.0740
 20
0.5840
 30
 0.0
  0
SEQEND
  8
DRD
  0
POLYLINE
  8
DRD
 66
      1
 70
1
 40
0.0050
 41
0.0050
  0
VERTEX
  8
DRD
 10
2.0965
 20
0.5590
 30
 0.0
 42
1.0
  0
VERTEX
  8
DRD
 10
2.1015
 20
0.5590
 30
 0.0
 42
1.0
  0
SEQEND
  8
DRD
  0
POLYLINE
  8
DRD
 66
      1
 70
1
 40
0.0050
 41
0.0050
  0
VERTEX
  8
DRD
 10
2.0715
 20
0.5840
 30
 0.0
 42
1.0
  0
VERTEX
  8
DRD
 10
2.0765
 20
0.5840
 30
 0.0
 42
1.0
  0
SEQEND
  8
DRD
  0
POLYLINE
  8
DRD
 66
      1
 70
0
 40
0.0100
 41
0.0100
  0
VERTEX
  8
DRD
 10
2.1240
 20
0.5840
 30
 0.0
  0
VERTEX
  8
DRD
 10
2.0990
 20
0.5590
 30
 0.0
  0
SEQEND
  8
DRD
  0
POLYLINE
  8
DRD
 66
      1
 70
1
 40
0.0050
 41
0.0050
  0
VERTEX
  8
DRD
 10
2.1215
 20
0.5840
 30
 0.0
 42
1.0
  0
VERTEX
  8
DRD
 10
2.1265
 20
0.5840
 30
 0.0
 42
1.0
  0
SEQEND
  8
DRD
  0
POLYLINE
  8
DRD
 66
      1
 70
1
 40
0.0050
 41
0.0050
  0
VERTEX
  8
DRD
 10
2.0965
 20
0.5590
 30
 0.0
 42
1.0
  0
VERTEX
  8
DRD
 10
2.1015
 20
0.5590
 30
 0.0
 42
1.0
  0
SEQEND
  8
DRD
  0
POLYLINE
  8
DRD
 66
      1
 70
0
 40
0.0100
 41
0.0100
  0
VERTEX
  8
DRD
 10
2.0990
 20
0.6090
 30
 0.0
  0
VERTEX
  8
DRD
 10
2.1240
 20
0.5840
 30
 0.0
  0
SEQEND
  8
DRD
  0
POLYLINE
  8
DRD
 66
      1
 70
1
 40
0.0050
 41
0.0050
  0
VERTEX
  8
DRD
 10
2.0965
 20
0.6090
 30
 0.0
 42
1.0
  0
VERTEX
  8
DRD
 10
2.1015
 20
0.6090
 30
 0.0
 42
1.0
  0
SEQEND
  8
DRD
  0
POLYLINE
  8
DRD
 66
      1
 70
1
 40
0.0050
 41
0.0050
  0
VERTEX
  8
DRD
 10
2.1215
 20
0.5840
 30
 0.0
 42
1.0
  0
VERTEX
  8
DRD
 10
2.1265
 20
0.5840
 30
 0.0
 42
1.0
  0
SEQEND
  8
DRD
  0
POLYLINE
  8
DRD
 66
      1
 70
0
 40
0.0100
 41
0.0100
  0
VERTEX
  8
DRD
 10
2.0740
 20
0.5840
 30
 0.0
  0
VERTEX
  8
DRD
 10
2.0990
 20
0.6090
 30
 0.0
  0
SEQEND
  8
DRD
  0
POLYLINE
  8
DRD
 66
      1
 70
1
 40
0.0050
 41
0.0050
  0
VERTEX
  8
DRD
 10
2.0715
 20
0.5840
 30
 0.0
 42
1.0
  0
VERTEX
  8
DRD
 10
2.0765
 20
0.5840
 30
 0.0
 42
1.0
  0
SEQEND
  8
DRD
  0
POLYLINE
  8
DRD
 66
      1
 70
1
 40
0.0050
 41
0.0050
  0
VERTEX
  8
DRD
 10
2.0965
 20
0.6090
 30
 0.0
 42
1.0
  0
VERTEX
  8
DRD
 10
2.1015
 20
0.6090
 30
 0.0
 42
1.0
  0
SEQEND
  8
DRD
  0
POLYLINE
  8
DRD
 66
      1
 70
0
 40
0.0100
 41
0.0100
  0
VERTEX
  8
DRD
 10
2.0060
 20
0.5230
 30
 0.0
  0
VERTEX
  8
DRD
 10
1.9810
 20
0.5480
 30
 0.0
  0
SEQEND
  8
DRD
  0
POLYLINE
  8
DRD
 66
      1
 70
1
 40
0.0050
 41
0.0050
  0
VERTEX
  8
DRD
 10
2.0035
 20
0.5230
 30
 0.0
 42
1.0
  0
VERTEX
  8
DRD
 10
2.0085
 20
0.5230
 30
 0.0
 42
1.0
  0
SEQEND
  8
DRD
  0
POLYLINE
  8
DRD
 66
      1
 70
1
 40
0.0050
 41
0.0050
  0
VERTEX
  8
DRD
 10
1.9785
 20
0.5480
 30
 0.0
 42
1.0
  0
VERTEX
  8
DRD
 10
1.9835
 20
0.5480
 30
 0.0
 42
1.0
  0
SEQEND
  8
DRD
  0
POLYLINE
  8
DRD
 66
      1
 70
0
 40
0.0100
 41
0.0100
  0
VERTEX
  8
DRD
 10
2.0310
 20
0.5480
 30
 0.0
  0
VERTEX
  8
DRD
 10
2.0060
 20
0.5230
 30
 0.0
  0
SEQEND
  8
DRD
  0
POLYLINE
  8
DRD
 66
      1
 70
1
 40
0.0050
 41
0.0050
  0
VERTEX
  8
DRD
 10
2.0285
 20
0.5480
 30
 0.0
 42
1.0
  0
VERTEX
  8
DRD
 10
2.0335
 20
0.5480
 30
 0.0
 42
1.0
  0
SEQEND
  8
DRD
  0
POLYLINE
  8
DRD
 66
      1
 70
1
 40
0.0050
 41
0.0050
  0
VERTEX
  8
DRD
 10
2.0035
 20
0.5230
 30
 0.0
 42
1.0
  0
VERTEX
  8
DRD
 10
2.0085
 20
0.5230
 30
 0.0
 42
1.0
  0
SEQEND
  8
DRD
  0
POLYLINE
  8
DRD
 66
      1
 70
0
 40
0.0100
 41
0.0100
  0
VERTEX
  8
DRD
 10
2.0060
 20
0.5730
 30
 0.0
  0
VERTEX
  8
DRD
 10
2.0310
 20
0.5480
 30
 0.0
  0
SEQEND
  8
DRD
  0
POLYLINE
  8
DRD
 66
      1
 70
1
 40
0.0050
 41
0.0050
  0
VERTEX
  8
DRD
 10
2.0035
 20
0.5730
 30
 0.0
 42
1.0
  0
VERTEX
  8
DRD
 10
2.0085
 20
0.5730
 30
 0.0
 42
1.0
  0
SEQEND
  8
DRD
  0
POLYLINE
  8
DRD
 66
      1
 70
1
 40
0.0050
 41
0.0050
  0
VERTEX
  8
DRD
 10
2.0285
 20
0.5480
 30
 0.0
 42
1.0
  0
VERTEX
  8
DRD
 10
2.0335
 20
0.5480
 30
 0.0
 42
1.0
  0
SEQEND
  8
DRD
  0
POLYLINE
  8
DRD
 66
      1
 70
0
 40
0.0100
 41
0.0100
  0
VERTEX
  8
DRD
 10
1.9810
 20
0.5480
 30
 0.0
  0
VERTEX
  8
DRD
 10
2.0060
 20
0.5730
 30
 0.0
  0
SEQEND
  8
DRD
  0
POLYLINE
  8
DRD
 66
      1
 70
1
 40
0.0050
 41
0.0050
  0
VERTEX
  8
DRD
 10
1.9785
 20
0.5480
 30
 0.0
 42
1.0
  0
VERTEX
  8
DRD
 10
1.9835
 20
0.5480
 30
 0.0
 42
1.0
  0
SEQEND
  8
DRD
  0
POLYLINE
  8
DRD
 66
      1
 70
1
 40
0.0050
 41
0.0050
  0
VERTEX
  8
DRD
 10
2.0035
 20
0.5730
 30
 0.0
 42
1.0
  0
VERTEX
  8
DRD
 10
2.0085
 20
0.5730
 30
 0.0
 42
1.0
  0
SEQEND
  8
DRD
  0
POLYLINE
  8
DRD
 66
      1
 70
0
 40
0.0100
 41
0.0100
  0
VERTEX
  8
DRD
 10
2.0710
 20
0.5880
 30
 0.0
  0
VERTEX
  8
DRD
 10
2.0460
 20
0.6130
 30
 0.0
  0
SEQEND
  8
DRD
  0
POLYLINE
  8
DRD
 66
      1
 70
1
 40
0.0050
 41
0.0050
  0
VERTEX
  8
DRD
 10
2.0685
 20
0.5880
 30
 0.0
 42
1.0
  0
VERTEX
  8
DRD
 10
2.0735
 20
0.5880
 30
 0.0
 42
1.0
  0
SEQEND
  8
DRD
  0
POLYLINE
  8
DRD
 66
      1
 70
1
 40
0.0050
 41
0.0050
  0
VERTEX
  8
DRD
 10
2.0435
 20
0.6130
 30
 0.0
 42
1.0
  0
VERTEX
  8
DRD
 10
2.0485
 20
0.6130
 30
 0.0
 42
1.0
  0
SEQEND
  8
DRD
  0
POLYLINE
  8
DRD
 66
      1
 70
0
 40
0.0100
 41
0.0100
  0
VERTEX
  8
DRD
 10
2.0960
 20
0.6130
 30
 0.0
  0
VERTEX
  8
DRD
 10
2.0710
 20
0.5880
 30
 0.0
  0
SEQEND
  8
DRD
  0
POLYLINE
  8
DRD
 66
      1
 70
1
 40
0.0050
 41
0.0050
  0
VERTEX
  8
DRD
 10
2.0935
 20
0.6130
 30
 0.0
 42
1.0
  0
VERTEX
  8
DRD
 10
2.0985
 20
0.6130
 30
 0.0
 42
1.0
  0
SEQEND
  8
DRD
  0
POLYLINE
  8
DRD
 66
      1
 70
1
 40
0.0050
 41
0.0050
  0
VERTEX
  8
DRD
 10
2.0685
 20
0.5880
 30
 0.0
 42
1.0
  0
VERTEX
  8
DRD
 10
2.0735
 20
0.5880
 30
 0.0
 42
1.0
  0
SEQEND
  8
DRD
  0
POLYLINE
  8
DRD
 66
      1
 70
0
 40
0.0100
 41
0.0100
  0
VERTEX
  8
DRD
 10
2.0710
 20
0.6380
 30
 0.0
  0
VERTEX
  8
DRD
 10
2.0960
 20
0.6130
 30
 0.0
  0
SEQEND
  8
DRD
  0
POLYLINE
  8
DRD
 66
      1
 70
1
 40
0.0050
 41
0.0050
  0
VERTEX
  8
DRD
 10
2.0685
 20
0.6380
 30
 0.0
 42
1.0
  0
VERTEX
  8
DRD
 10
2.0735
 20
0.6380
 30
 0.0
 42
1.0
  0
SEQEND
  8
DRD
  0
POLYLINE
  8
DRD
 66
      1
 70
1
 40
0.0050
 41
0.0050
  0
VERTEX
  8
DRD
 10
2.0935
 20
0.6130
 30
 0.0
 42
1.0
  0
VERTEX
  8
DRD
 10
2.0985
 20
0.6130
 30
 0.0
 42
1.0
  0
SEQEND
  8
DRD
  0
POLYLINE
  8
DRD
 66
      1
 70
0
 40
0.0100
 41
0.0100
  0
VERTEX
  8
DRD
 10
2.0460
 20
0.6130
 30
 0.0
  0
VERTEX
  8
DRD
 10
2.0710
 20
0.6380
 30
 0.0
  0
SEQEND
  8
DRD
  0
POLYLINE
  8
DRD
 66
      1
 70
1
 40
0.0050
 41
0.0050
  0
VERTEX
  8
DRD
 10
2.0435
 20
0.6130
 30
 0.0
 42
1.0
  0
VERTEX
  8
DRD
 10
2.0485
 20
0.6130
 30
 0.0
 42
1.0
  0
SEQEND
  8
DRD
  0
POLYLINE
  8
DRD
 66
      1
 70
1
 40
0.0050
 41
0.0050
  0
VERTEX
  8
DRD
 10
2.0685
 20
0.6380
 30
 0.0
 42
1.0
  0
VERTEX
  8
DRD
 10
2.0735
 20
0.6380
 30
 0.0
 42
1.0
  0
SEQEND
  8
DRD
  0
POLYLINE
  8
DRD
 66
      1
 70
0
 40
0.0100
 41
0.0100
  0
VERTEX
  8
DRD
 10
2.0980
 20
0.6220
 30
 0.0
  0
VERTEX
  8
DRD
 10
2.0730
 20
0.6470
 30
 0.0
  0
SEQEND
  8
DRD
  0
POLYLINE
  8
DRD
 66
      1
 70
1
 40
0.0050
 41
0.0050
  0
VERTEX
  8
DRD
 10
2.0955
 20
0.6220
 30
 0.0
 42
1.0
  0
VERTEX
  8
DRD
 10
2.1005
 20
0.6220
 30
 0.0
 42
1.0
  0
SEQEND
  8
DRD
  0
POLYLINE
  8
DRD
 66
      1
 70
1
 40
0.0050
 41
0.0050
  0
VERTEX
  8
DRD
 10
2.0705
 20
0.6470
 30
 0.0
 42
1.0
  0
VERTEX
  8
DRD
 10
2.0755
 20
0.6470
 30
 0.0
 42
1.0
  0
SEQEND
  8
DRD
  0
POLYLINE
  8
DRD
 66
      1
 70
0
 40
0.0100
 41
0.0100
  0
VERTEX
  8
DRD
 10
2.1230
 20
0.6470
 30
 0.0
  0
VERTEX
  8
DRD
 10
2.0980
 20
0.6220
 30
 0.0
  0
SEQEND
  8
DRD
  0
POLYLINE
  8
DRD
 66
      1
 70
1
 40
0.0050
 41
0.0050
  0
VERTEX
  8
DRD
 10
2.1205
 20
0.6470
 30
 0.0
 42
1.0
  0
VERTEX
  8
DRD
 10
2.1255
 20
0.6470
 30
 0.0
 42
1.0
  0
SEQEND
  8
DRD
  0
POLYLINE
  8
DRD
 66
      1
 70
1
 40
0.0050
 41
0.0050
  0
VERTEX
  8
DRD
 10
2.0955
 20
0.6220
 30
 0.0
 42
1.0
  0
VERTEX
  8
DRD
 10
2.1005
 20
0.6220
 30
 0.0
 42
1.0
  0
SEQEND
  8
DRD
  0
POLYLINE
  8
DRD
 66
      1
 70
0
 40
0.0100
 41
0.0100
  0
VERTEX
  8
DRD
 10
2.0980
 20
0.6720
 30
 0.0
  0
VERTEX
  8
DRD
 10
2.1230
 20
0.6470
 30
 0.0
  0
SEQEND
  8
DRD
  0
POLYLINE
  8
DRD
 66
      1
 70
1
 40
0.0050
 41
0.0050
  0
VERTEX
  8
DRD
 10
2.0955
 20
0.6720
 30
 0.0
 42
1.0
  0
VERTEX
  8
DRD
 10
2.1005
 20
0.6720
 30
 0.0
 42
1.0
  0
SEQEND
  8
DRD
  0
POLYLINE
  8
DRD
 66
      1
 70
1
 40
0.0050
 41
0.0050
  0
VERTEX
  8
DRD
 10
2.1205
 20
0.6470
 30
 0.0
 42
1.0
  0
VERTEX
  8
DRD
 10
2.1255
 20
0.6470
 30
 0.0
 42
1.0
  0
SEQEND
  8
DRD
  0
POLYLINE
  8
DRD
 66
      1
 70
0
 40
0.0100
 41
0.0100
  0
VERTEX
  8
DRD
 10
2.0730
 20
0.6470
 30
 0.0
  0
VERTEX
  8
DRD
 10
2.0980
 20
0.6720
 30
 0.0
  0
SEQEND
  8
DRD
  0
POLYLINE
  8
DRD
 66
      1
 70
1
 40
0.0050
 41
0.0050
  0
VERTEX
  8
DRD
 10
2.0705
 20
0.6470
 30
 0.0
 42
1.0
  0
VERTEX
  8
DRD
 10
2.0755
 20
0.6470
 30
 0.0
 42
1.0
  0
SEQEND
  8
DRD
  0
POLYLINE
  8
DRD
 66
      1
 70
1
 40
0.0050
 41
0.0050
  0
VERTEX
  8
DRD
 10
2.0955
 20
0.6720
 30
 0.0
 42
1.0
  0
VERTEX
  8
DRD
 10
2.1005
 20
0.6720
 30
 0.0
 42
1.0
  0
SEQEND
  8
DRD
  0
POLYLINE
  8
DRD
 66
      1
 70
0
 40
0.0100
 41
0.0100
  0
VERTEX
  8
DRD
 10
2.0430
 20
0.6220
 30
 0.0
  0
VERTEX
  8
DRD
 10
2.0180
 20
0.6470
 30
 0.0
  0
SEQEND
  8
DRD
  0
POLYLINE
  8
DRD
 66
      1
 70
1
 40
0.0050
 41
0.0050
  0
VERTEX
  8
DRD
 10
2.0405
 20
0.6220
 30
 0.0
 42
1.0
  0
VERTEX
  8
DRD
 10
2.0455
 20
0.6220
 30
 0.0
 42
1.0
  0
SEQEND
  8
DRD
  0
POLYLINE
  8
DRD
 66
      1
 70
1
 40
0.0050
 41
0.0050
  0
VERTEX
  8
DRD
 10
2.0155
 20
0.6470
 30
 0.0
 42
1.0
  0
VERTEX
  8
DRD
 10
2.0205
 20
0.6470
 30
 0.0
 42
1.0
  0
SEQEND
  8
DRD
  0
POLYLINE
  8
DRD
 66
      1
 70
0
 40
0.0100
 41
0.0100
  0
VERTEX
  8
DRD
 10
2.0680
 20
0.6470
 30
 0.0
  0
VERTEX
  8
DRD
 10
2.0430
 20
0.6220
 30
 0.0
  0
SEQEND
  8
DRD
  0
POLYLINE
  8
DRD
 66
      1
 70
1
 40
0.0050
 41
0.0050
  0
VERTEX
  8
DRD
 10
2.0655
 20
0.6470
 30
 0.0
 42
1.0
  0
VERTEX
  8
DRD
 10
2.0705
 20
0.6470
 30
 0.0
 42
1.0
  0
SEQEND
  8
DRD
  0
POLYLINE
  8
DRD
 66
      1
 70
1
 40
0.0050
 41
0.0050
  0
VERTEX
  8
DRD
 10
2.0405
 20
0.6220
 30
 0.0
 42
1.0
  0
VERTEX
  8
DRD
 10
2.0455
 20
0.6220
 30
 0.0
 42
1.0
  0
SEQEND
  8
DRD
  0
POLYLINE
  8
DRD
 66
      1
 70
0
 40
0.0100
 41
0.0100
  0
VERTEX
  8
DRD
 10
2.0430
 20
0.6720
 30
 0.0
  0
VERTEX
  8
DRD
 10
2.0680
 20
0.6470
 30
 0.0
  0
SEQEND
  8
DRD
  0
POLYLINE
  8
DRD
 66
      1
 70
1
 40
0.0050
 41
0.0050
  0
VERTEX
  8
DRD
 10
2.0405
 20
0.6720
 30
 0.0
 42
1.0
  0
VERTEX
  8
DRD
 10
2.0455
 20
0.6720
 30
 0.0
 42
1.0
  0
SEQEND
  8
DRD
  0
POLYLINE
  8
DRD
 66
      1
 70
1
 40
0.0050
 41
0.0050
  0
VERTEX
  8
DRD
 10
2.0655
 20
0.6470
 30
 0.0
 42
1.0
  0
VERTEX
  8
DRD
 10
2.0705
 20
0.6470
 30
 0.0
 42
1.0
  0
SEQEND
  8
DRD
  0
POLYLINE
  8
DRD
 66
      1
 70
0
 40
0.0100
 41
0.0100
  0
VERTEX
  8
DRD
 10
2.0180
 20
0.6470
 30
 0.0
  0
VERTEX
  8
DRD
 10
2.0430
 20
0.6720
 30
 0.0
  0
SEQEND
  8
DRD
  0
POLYLINE
  8
DRD
 66
      1
 70
1
 40
0.0050
 41
0.0050
  0
VERTEX
  8
DRD
 10
2.0155
 20
0.6470
 30
 0.0
 42
1.0
  0
VERTEX
  8
DRD
 10
2.0205
 20
0.6470
 30
 0.0
 42
1.0
  0
SEQEND
  8
DRD
  0
POLYLINE
  8
DRD
 66
      1
 70
1
 40
0.0050
 41
0.0050
  0
VERTEX
  8
DRD
 10
2.0405
 20
0.6720
 30
 0.0
 42
1.0
  0
VERTEX
  8
DRD
 10
2.0455
 20
0.6720
 30
 0.0
 42
1.0
  0
SEQEND
  8
DRD
  0
POLYLINE
  8
DRD
 66
      1
 70
0
 40
0.0100
 41
0.0100
  0
VERTEX
  8
DRD
 10
2.0060
 20
0.4780
 30
 0.0
  0
VERTEX
  8
DRD
 10
1.9810
 20
0.5030
 30
 0.0
  0
SEQEND
  8
DRD
  0
POLYLINE
  8
DRD
 66
      1
 70
1
 40
0.0050
 41
0.0050
  0
VERTEX
  8
DRD
 10
2.0035
 20
0.4780
 30
 0.0
 42
1.0
  0
VERTEX
  8
DRD
 10
2.0085
 20
0.4780
 30
 0.0
 42
1.0
  0
SEQEND
  8
DRD
  0
POLYLINE
  8
DRD
 66
      1
 70
1
 40
0.0050
 41
0.0050
  0
VERTEX
  8
DRD
 10
1.9785
 20
0.5030
 30
 0.0
 42
1.0
  0
VERTEX
  8
DRD
 10
1.9835
 20
0.5030
 30
 0.0
 42
1.0
  0
SEQEND
  8
DRD
  0
POLYLINE
  8
DRD
 66
      1
 70
0
 40
0.0100
 41
0.0100
  0
VERTEX
  8
DRD
 10
2.0310
 20
0.5030
 30
 0.0
  0
VERTEX
  8
DRD
 10
2.0060
 20
0.4780
 30
 0.0
  0
SEQEND
  8
DRD
  0
POLYLINE
  8
DRD
 66
      1
 70
1
 40
0.0050
 41
0.0050
  0
VERTEX
  8
DRD
 10
2.0285
 20
0.5030
 30
 0.0
 42
1.0
  0
VERTEX
  8
DRD
 10
2.0335
 20
0.5030
 30
 0.0
 42
1.0
  0
SEQEND
  8
DRD
  0
POLYLINE
  8
DRD
 66
      1
 70
1
 40
0.0050
 41
0.0050
  0
VERTEX
  8
DRD
 10
2.0035
 20
0.4780
 30
 0.0
 42
1.0
  0
VERTEX
  8
DRD
 10
2.0085
 20
0.4780
 30
 0.0
 42
1.0
  0
SEQEND
  8
DRD
  0
POLYLINE
  8
DRD
 66
      1
 70
0
 40
0.0100
 41
0.0100
  0
VERTEX
  8
DRD
 10
2.0060
 20
0.5280
 30
 0.0
  0
VERTEX
  8
DRD
 10
2.0310
 20
0.5030
 30
 0.0
  0
SEQEND
  8
DRD
  0
POLYLINE
  8
DRD
 66
      1
 70
1
 40
0.0050
 41
0.0050
  0
VERTEX
  8
DRD
 10
2.0035
 20
0.5280
 30
 0.0
 42
1.0
  0
VERTEX
  8
DRD
 10
2.0085
 20
0.5280
 30
 0.0
 42
1.0
  0
SEQEND
  8
DRD
  0
POLYLINE
  8
DRD
 66
      1
 70
1
 40
0.0050
 41
0.0050
  0
VERTEX
  8
DRD
 10
2.0285
 20
0.5030
 30
 0.0
 42
1.0
  0
VERTEX
  8
DRD
 10
2.0335
 20
0.5030
 30
 0.0
 42
1.0
  0
SEQEND
  8
DRD
  0
POLYLINE
  8
DRD
 66
      1
 70
0
 40
0.0100
 41
0.0100
  0
VERTEX
  8
DRD
 10
1.9810
 20
0.5030
 30
 0.0
  0
VERTEX
  8
DRD
 10
2.0060
 20
0.5280
 30
 0.0
  0
SEQEND
  8
DRD
  0
POLYLINE
  8
DRD
 66
      1
 70
1
 40
0.0050
 41
0.0050
  0
VERTEX
  8
DRD
 10
1.9785
 20
0.5030
 30
 0.0
 42
1.0
  0
VERTEX
  8
DRD
 10
1.9835
 20
0.5030
 30
 0.0
 42
1.0
  0
SEQEND
  8
DRD
  0
POLYLINE
  8
DRD
 66
      1
 70
1
 40
0.0050
 41
0.0050
  0
VERTEX
  8
DRD
 10
2.0035
 20
0.5280
 30
 0.0
 42
1.0
  0
VERTEX
  8
DRD
 10
2.0085
 20
0.5280
 30
 0.0
 42
1.0
  0
SEQEND
  8
DRD
  0
POLYLINE
  8
DRD
 66
      1
 70
0
 40
0.0100
 41
0.0100
  0
VERTEX
  8
DRD
 10
1.6460
 20
0.8510
 30
 0.0
  0
VERTEX
  8
DRD
 10
1.6210
 20
0.8760
 30
 0.0
  0
SEQEND
  8
DRD
  0
POLYLINE
  8
DRD
 66
      1
 70
1
 40
0.0050
 41
0.0050
  0
VERTEX
  8
DRD
 10
1.6435
 20
0.8510
 30
 0.0
 42
1.0
  0
VERTEX
  8
DRD
 10
1.6485
 20
0.8510
 30
 0.0
 42
1.0
  0
SEQEND
  8
DRD
  0
POLYLINE
  8
DRD
 66
      1
 70
1
 40
0.0050
 41
0.0050
  0
VERTEX
  8
DRD
 10
1.6185
 20
0.8760
 30
 0.0
 42
1.0
  0
VERTEX
  8
DRD
 10
1.6235
 20
0.8760
 30
 0.0
 42
1.0
  0
SEQEND
  8
DRD
  0
POLYLINE
  8
DRD
 66
      1
 70
0
 40
0.0100
 41
0.0100
  0
VERTEX
  8
DRD
 10
1.6710
 20
0.8760
 30
 0.0
  0
VERTEX
  8
DRD
 10
1.6460
 20
0.8510
 30
 0.0
  0
SEQEND
  8
DRD
  0
POLYLINE
  8
DRD
 66
      1
 70
1
 40
0.0050
 41
0.0050
  0
VERTEX
  8
DRD
 10
1.6685
 20
0.8760
 30
 0.0
 42
1.0
  0
VERTEX
  8
DRD
 10
1.6735
 20
0.8760
 30
 0.0
 42
1.0
  0
SEQEND
  8
DRD
  0
POLYLINE
  8
DRD
 66
      1
 70
1
 40
0.0050
 41
0.0050
  0
VERTEX
  8
DRD
 10
1.6435
 20
0.8510
 30
 0.0
 42
1.0
  0
VERTEX
  8
DRD
 10
1.6485
 20
0.8510
 30
 0.0
 42
1.0
  0
SEQEND
  8
DRD
  0
POLYLINE
  8
DRD
 66
      1
 70
0
 40
0.0100
 41
0.0100
  0
VERTEX
  8
DRD
 10
1.6460
 20
0.9010
 30
 0.0
  0
VERTEX
  8
DRD
 10
1.6710
 20
0.8760
 30
 0.0
  0
SEQEND
  8
DRD
  0
POLYLINE
  8
DRD
 66
      1
 70
1
 40
0.0050
 41
0.0050
  0
VERTEX
  8
DRD
 10
1.6435
 20
0.9010
 30
 0.0
 42
1.0
  0
VERTEX
  8
DRD
 10
1.6485
 20
0.9010
 30
 0.0
 42
1.0
  0
SEQEND
  8
DRD
  0
POLYLINE
  8
DRD
 66
      1
 70
1
 40
0.0050
 41
0.0050
  0
VERTEX
  8
DRD
 10
1.6685
 20
0.8760
 30
 0.0
 42
1.0
  0
VERTEX
  8
DRD
 10
1.6735
 20
0.8760
 30
 0.0
 42
1.0
  0
SEQEND
  8
DRD
  0
POLYLINE
  8
DRD
 66
      1
 70
0
 40
0.0100
 41
0.0100
  0
VERTEX
  8
DRD
 10
1.6210
 20
0.8760
 30
 0.0
  0
VERTEX
  8
DRD
 10
1.6460
 20
0.9010
 30
 0.0
  0
SEQEND
  8
DRD
  0
POLYLINE
  8
DRD
 66
      1
 70
1
 40
0.0050
 41
0.0050
  0
VERTEX
  8
DRD
 10
1.6185
 20
0.8760
 30
 0.0
 42
1.0
  0
VERTEX
  8
DRD
 10
1.6235
 20
0.8760
 30
 0.0
 42
1.0
  0
SEQEND
  8
DRD
  0
POLYLINE
  8
DRD
 66
      1
 70
1
 40
0.0050
 41
0.0050
  0
VERTEX
  8
DRD
 10
1.6435
 20
0.9010
 30
 0.0
 42
1.0
  0
VERTEX
  8
DRD
 10
1.6485
 20
0.9010
 30
 0.0
 42
1.0
  0
SEQEND
  8
DRD
  0
POLYLINE
  8
DRD
 66
      1
 70
0
 40
0.0100
 41
0.0100
  0
VERTEX
  8
DRD
 10
1.4090
 20
1.1280
 30
 0.0
  0
VERTEX
  8
DRD
 10
1.3840
 20
1.1530
 30
 0.0
  0
SEQEND
  8
DRD
  0
POLYLINE
  8
DRD
 66
      1
 70
1
 40
0.0050
 41
0.0050
  0
VERTEX
  8
DRD
 10
1.4065
 20
1.1280
 30
 0.0
 42
1.0
  0
VERTEX
  8
DRD
 10
1.4115
 20
1.1280
 30
 0.0
 42
1.0
  0
SEQEND
  8
DRD
  0
POLYLINE
  8
DRD
 66
      1
 70
1
 40
0.0050
 41
0.0050
  0
VERTEX
  8
DRD
 10
1.3815
 20
1.1530
 30
 0.0
 42
1.0
  0
VERTEX
  8
DRD
 10
1.3865
 20
1.1530
 30
 0.0
 42
1.0
  0
SEQEND
  8
DRD
  0
POLYLINE
  8
DRD
 66
      1
 70
0
 40
0.0100
 41
0.0100
  0
VERTEX
  8
DRD
 10
1.4340
 20
1.1530
 30
 0.0
  0
VERTEX
  8
DRD
 10
1.4090
 20
1.1280
 30
 0.0
  0
SEQEND
  8
DRD
  0
POLYLINE
  8
DRD
 66
      1
 70
1
 40
0.0050
 41
0.0050
  0
VERTEX
  8
DRD
 10
1.4315
 20
1.1530
 30
 0.0
 42
1.0
  0
VERTEX
  8
DRD
 10
1.4365
 20
1.1530
 30
 0.0
 42
1.0
  0
SEQEND
  8
DRD
  0
POLYLINE
  8
DRD
 66
      1
 70
1
 40
0.0050
 41
0.0050
  0
VERTEX
  8
DRD
 10
1.4065
 20
1.1280
 30
 0.0
 42
1.0
  0
VERTEX
  8
DRD
 10
1.4115
 20
1.1280
 30
 0.0
 42
1.0
  0
SEQEND
  8
DRD
  0
POLYLINE
  8
DRD
 66
      1
 70
0
 40
0.0100
 41
0.0100
  0
VERTEX
  8
DRD
 10
1.4090
 20
1.1780
 30
 0.0
  0
VERTEX
  8
DRD
 10
1.4340
 20
1.1530
 30
 0.0
  0
SEQEND
  8
DRD
  0
POLYLINE
  8
DRD
 66
      1
 70
1
 40
0.0050
 41
0.0050
  0
VERTEX
  8
DRD
 10
1.4065
 20
1.1780
 30
 0.0
 42
1.0
  0
VERTEX
  8
DRD
 10
1.4115
 20
1.1780
 30
 0.0
 42
1.0
  0
SEQEND
  8
DRD
  0
POLYLINE
  8
DRD
 66
      1
 70
1
 40
0.0050
 41
0.0050
  0
VERTEX
  8
DRD
 10
1.4315
 20
1.1530
 30
 0.0
 42
1.0
  0
VERTEX
  8
DRD
 10
1.4365
 20
1.1530
 30
 0.0
 42
1.0
  0
SEQEND
  8
DRD
  0
POLYLINE
  8
DRD
 66
      1
 70
0
 40
0.0100
 41
0.0100
  0
VERTEX
  8
DRD
 10
1.3840
 20
1.1530
 30
 0.0
  0
VERTEX
  8
DRD
 10
1.4090
 20
1.1780
 30
 0.0
  0
SEQEND
  8
DRD
  0
POLYLINE
  8
DRD
 66
      1
 70
1
 40
0.0050
 41
0.0050
  0
VERTEX
  8
DRD
 10
1.3815
 20
1.1530
 30
 0.0
 42
1.0
  0
VERTEX
  8
DRD
 10
1.3865
 20
1.1530
 30
 0.0
 42
1.0
  0
SEQEND
  8
DRD
  0
POLYLINE
  8
DRD
 66
      1
 70
1
 40
0.0050
 41
0.0050
  0
VERTEX
  8
DRD
 10
1.4065
 20
1.1780
 30
 0.0
 42
1.0
  0
VERTEX
  8
DRD
 10
1.4115
 20
1.1780
 30
 0.0
 42
1.0
  0
SEQEND
  8
DRD
  0
POLYLINE
  8
DRD
 66
      1
 70
0
 40
0.0100
 41
0.0100
  0
VERTEX
  8
DRD
 10
1.3590
 20
1.1280
 30
 0.0
  0
VERTEX
  8
DRD
 10
1.3340
 20
1.1530
 30
 0.0
  0
SEQEND
  8
DRD
  0
POLYLINE
  8
DRD
 66
      1
 70
1
 40
0.0050
 41
0.0050
  0
VERTEX
  8
DRD
 10
1.3565
 20
1.1280
 30
 0.0
 42
1.0
  0
VERTEX
  8
DRD
 10
1.3615
 20
1.1280
 30
 0.0
 42
1.0
  0
SEQEND
  8
DRD
  0
POLYLINE
  8
DRD
 66
      1
 70
1
 40
0.0050
 41
0.0050
  0
VERTEX
  8
DRD
 10
1.3315
 20
1.1530
 30
 0.0
 42
1.0
  0
VERTEX
  8
DRD
 10
1.3365
 20
1.1530
 30
 0.0
 42
1.0
  0
SEQEND
  8
DRD
  0
POLYLINE
  8
DRD
 66
      1
 70
0
 40
0.0100
 41
0.0100
  0
VERTEX
  8
DRD
 10
1.3840
 20
1.1530
 30
 0.0
  0
VERTEX
  8
DRD
 10
1.3590
 20
1.1280
 30
 0.0
  0
SEQEND
  8
DRD
  0
POLYLINE
  8
DRD
 66
      1
 70
1
 40
0.0050
 41
0.0050
  0
VERTEX
  8
DRD
 10
1.3815
 20
1.1530
 30
 0.0
 42
1.0
  0
VERTEX
  8
DRD
 10
1.3865
 20
1.1530
 30
 0.0
 42
1.0
  0
SEQEND
  8
DRD
  0
POLYLINE
  8
DRD
 66
      1
 70
1
 40
0.0050
 41
0.0050
  0
VERTEX
  8
DRD
 10
1.3565
 20
1.1280
 30
 0.0
 42
1.0
  0
VERTEX
  8
DRD
 10
1.3615
 20
1.1280
 30
 0.0
 42
1.0
  0
SEQEND
  8
DRD
  0
POLYLINE
  8
DRD
 66
      1
 70
0
 40
0.0100
 41
0.0100
  0
VERTEX
  8
DRD
 10
1.3590
 20
1.1780
 30
 0.0
  0
VERTEX
  8
DRD
 10
1.3840
 20
1.1530
 30
 0.0
  0
SEQEND
  8
DRD
  0
POLYLINE
  8
DRD
 66
      1
 70
1
 40
0.0050
 41
0.0050
  0
VERTEX
  8
DRD
 10
1.3565
 20
1.1780
 30
 0.0
 42
1.0
  0
VERTEX
  8
DRD
 10
1.3615
 20
1.1780
 30
 0.0
 42
1.0
  0
SEQEND
  8
DRD
  0
POLYLINE
  8
DRD
 66
      1
 70
1
 40
0.0050
 41
0.0050
  0
VERTEX
  8
DRD
 10
1.3815
 20
1.1530
 30
 0.0
 42
1.0
  0
VERTEX
  8
DRD
 10
1.3865
 20
1.1530
 30
 0.0
 42
1.0
  0
SEQEND
  8
DRD
  0
POLYLINE
  8
DRD
 66
      1
 70
0
 40
0.0100
 41
0.0100
  0
VERTEX
  8
DRD
 10
1.3340
 20
1.1530
 30
 0.0
  0
VERTEX
  8
DRD
 10
1.3590
 20
1.1780
 30
 0.0
  0
SEQEND
  8
DRD
  0
POLYLINE
  8
DRD
 66
      1
 70
1
 40
0.0050
 41
0.0050
  0
VERTEX
  8
DRD
 10
1.3315
 20
1.1530
 30
 0.0
 42
1.0
  0
VERTEX
  8
DRD
 10
1.3365
 20
1.1530
 30
 0.0
 42
1.0
  0
SEQEND
  8
DRD
  0
POLYLINE
  8
DRD
 66
      1
 70
1
 40
0.0050
 41
0.0050
  0
VERTEX
  8
DRD
 10
1.3565
 20
1.1780
 30
 0.0
 42
1.0
  0
VERTEX
  8
DRD
 10
1.3615
 20
1.1780
 30
 0.0
 42
1.0
  0
SEQEND
  8
DRD
  0
POLYLINE
  8
DRD
 66
      1
 70
0
 40
0.0100
 41
0.0100
  0
VERTEX
  8
DRD
 10
1.3070
 20
1.1280
 30
 0.0
  0
VERTEX
  8
DRD
 10
1.2820
 20
1.1530
 30
 0.0
  0
SEQEND
  8
DRD
  0
POLYLINE
  8
DRD
 66
      1
 70
1
 40
0.0050
 41
0.0050
  0
VERTEX
  8
DRD
 10
1.3045
 20
1.1280
 30
 0.0
 42
1.0
  0
VERTEX
  8
DRD
 10
1.3095
 20
1.1280
 30
 0.0
 42
1.0
  0
SEQEND
  8
DRD
  0
POLYLINE
  8
DRD
 66
      1
 70
1
 40
0.0050
 41
0.0050
  0
VERTEX
  8
DRD
 10
1.2795
 20
1.1530
 30
 0.0
 42
1.0
  0
VERTEX
  8
DRD
 10
1.2845
 20
1.1530
 30
 0.0
 42
1.0
  0
SEQEND
  8
DRD
  0
POLYLINE
  8
DRD
 66
      1
 70
0
 40
0.0100
 41
0.0100
  0
VERTEX
  8
DRD
 10
1.3320
 20
1.1530
 30
 0.0
  0
VERTEX
  8
DRD
 10
1.3070
 20
1.1280
 30
 0.0
  0
SEQEND
  8
DRD
  0
POLYLINE
  8
DRD
 66
      1
 70
1
 40
0.0050
 41
0.0050
  0
VERTEX
  8
DRD
 10
1.3295
 20
1.1530
 30
 0.0
 42
1.0
  0
VERTEX
  8
DRD
 10
1.3345
 20
1.1530
 30
 0.0
 42
1.0
  0
SEQEND
  8
DRD
  0
POLYLINE
  8
DRD
 66
      1
 70
1
 40
0.0050
 41
0.0050
  0
VERTEX
  8
DRD
 10
1.3045
 20
1.1280
 30
 0.0
 42
1.0
  0
VERTEX
  8
DRD
 10
1.3095
 20
1.1280
 30
 0.0
 42
1.0
  0
SEQEND
  8
DRD
  0
POLYLINE
  8
DRD
 66
      1
 70
0
 40
0.0100
 41
0.0100
  0
VERTEX
  8
DRD
 10
1.3070
 20
1.1780
 30
 0.0
  0
VERTEX
  8
DRD
 10
1.3320
 20
1.1530
 30
 0.0
  0
SEQEND
  8
DRD
  0
POLYLINE
  8
DRD
 66
      1
 70
1
 40
0.0050
 41
0.0050
  0
VERTEX
  8
DRD
 10
1.3045
 20
1.1780
 30
 0.0
 42
1.0
  0
VERTEX
  8
DRD
 10
1.3095
 20
1.1780
 30
 0.0
 42
1.0
  0
SEQEND
  8
DRD
  0
POLYLINE
  8
DRD
 66
      1
 70
1
 40
0.0050
 41
0.0050
  0
VERTEX
  8
DRD
 10
1.3295
 20
1.1530
 30
 0.0
 42
1.0
  0
VERTEX
  8
DRD
 10
1.3345
 20
1.1530
 30
 0.0
 42
1.0
  0
SEQEND
  8
DRD
  0
POLYLINE
  8
DRD
 66
      1
 70
0
 40
0.0100
 41
0.0100
  0
VERTEX
  8
DRD
 10
1.2820
 20
1.1530
 30
 0.0
  0
VERTEX
  8
DRD
 10
1.3070
 20
1.1780
 30
 0.0
  0
SEQEND
  8
DRD
  0
POLYLINE
  8
DRD
 66
      1
 70
1
 40
0.0050
 41
0.0050
  0
VERTEX
  8
DRD
 10
1.2795
 20
1.1530
 30
 0.0
 42
1.0
  0
VERTEX
  8
DRD
 10
1.2845
 20
1.1530
 30
 0.0
 42
1.0
  0
SEQEND
  8
DRD
  0
POLYLINE
  8
DRD
 66
      1
 70
1
 40
0.0050
 41
0.0050
  0
VERTEX
  8
DRD
 10
1.3045
 20
1.1780
 30
 0.0
 42
1.0
  0
VERTEX
  8
DRD
 10
1.3095
 20
1.1780
 30
 0.0
 42
1.0
  0
SEQEND
  8
DRD
  0
POLYLINE
  8
DRD
 66
      1
 70
0
 40
0.0100
 41
0.0100
  0
VERTEX
  8
DRD
 10
1.2530
 20
1.1280
 30
 0.0
  0
VERTEX
  8
DRD
 10
1.2280
 20
1.1530
 30
 0.0
  0
SEQEND
  8
DRD
  0
POLYLINE
  8
DRD
 66
      1
 70
1
 40
0.0050
 41
0.0050
  0
VERTEX
  8
DRD
 10
1.2505
 20
1.1280
 30
 0.0
 42
1.0
  0
VERTEX
  8
DRD
 10
1.2555
 20
1.1280
 30
 0.0
 42
1.0
  0
SEQEND
  8
DRD
  0
POLYLINE
  8
DRD
 66
      1
 70
1
 40
0.0050
 41
0.0050
  0
VERTEX
  8
DRD
 10
1.2255
 20
1.1530
 30
 0.0
 42
1.0
  0
VERTEX
  8
DRD
 10
1.2305
 20
1.1530
 30
 0.0
 42
1.0
  0
SEQEND
  8
DRD
  0
POLYLINE
  8
DRD
 66
      1
 70
0
 40
0.0100
 41
0.0100
  0
VERTEX
  8
DRD
 10
1.2780
 20
1.1530
 30
 0.0
  0
VERTEX
  8
DRD
 10
1.2530
 20
1.1280
 30
 0.0
  0
SEQEND
  8
DRD
  0
POLYLINE
  8
DRD
 66
      1
 70
1
 40
0.0050
 41
0.0050
  0
VERTEX
  8
DRD
 10
1.2755
 20
1.1530
 30
 0.0
 42
1.0
  0
VERTEX
  8
DRD
 10
1.2805
 20
1.1530
 30
 0.0
 42
1.0
  0
SEQEND
  8
DRD
  0
POLYLINE
  8
DRD
 66
      1
 70
1
 40
0.0050
 41
0.0050
  0
VERTEX
  8
DRD
 10
1.2505
 20
1.1280
 30
 0.0
 42
1.0
  0
VERTEX
  8
DRD
 10
1.2555
 20
1.1280
 30
 0.0
 42
1.0
  0
SEQEND
  8
DRD
  0
POLYLINE
  8
DRD
 66
      1
 70
0
 40
0.0100
 41
0.0100
  0
VERTEX
  8
DRD
 10
1.2530
 20
1.1780
 30
 0.0
  0
VERTEX
  8
DRD
 10
1.2780
 20
1.1530
 30
 0.0
  0
SEQEND
  8
DRD
  0
POLYLINE
  8
DRD
 66
      1
 70
1
 40
0.0050
 41
0.0050
  0
VERTEX
  8
DRD
 10
1.2505
 20
1.1780
 30
 0.0
 42
1.0
  0
VERTEX
  8
DRD
 10
1.2555
 20
1.1780
 30
 0.0
 42
1.0
  0
SEQEND
  8
DRD
  0
POLYLINE
  8
DRD
 66
      1
 70
1
 40
0.0050
 41
0.0050
  0
VERTEX
  8
DRD
 10
1.2755
 20
1.1530
 30
 0.0
 42
1.0
  0
VERTEX
  8
DRD
 10
1.2805
 20
1.1530
 30
 0.0
 42
1.0
  0
SEQEND
  8
DRD
  0
POLYLINE
  8
DRD
 66
      1
 70
0
 40
0.0100
 41
0.0100
  0
VERTEX
  8
DRD
 10
1.2280
 20
1.1530
 30
 0.0
  0
VERTEX
  8
DRD
 10
1.2530
 20
1.1780
 30
 0.0
  0
SEQEND
  8
DRD
  0
POLYLINE
  8
DRD
 66
      1
 70
1
 40
0.0050
 41
0.0050
  0
VERTEX
  8
DRD
 10
1.2255
 20
1.1530
 30
 0.0
 42
1.0
  0
VERTEX
  8
DRD
 10
1.2305
 20
1.1530
 30
 0.0
 42
1.0
  0
SEQEND
  8
DRD
  0
POLYLINE
  8
DRD
 66
      1
 70
1
 40
0.0050
 41
0.0050
  0
VERTEX
  8
DRD
 10
1.2505
 20
1.1780
 30
 0.0
 42
1.0
  0
VERTEX
  8
DRD
 10
1.2555
 20
1.1780
 30
 0.0
 42
1.0
  0
SEQEND
  8
DRD
  0
POLYLINE
  8
DRD
 66
      1
 70
0
 40
0.0100
 41
0.0100
  0
VERTEX
  8
DRD
 10
1.2270
 20
1.1620
 30
 0.0
  0
VERTEX
  8
DRD
 10
1.2020
 20
1.1870
 30
 0.0
  0
SEQEND
  8
DRD
  0
POLYLINE
  8
DRD
 66
      1
 70
1
 40
0.0050
 41
0.0050
  0
VERTEX
  8
DRD
 10
1.2245
 20
1.1620
 30
 0.0
 42
1.0
  0
VERTEX
  8
DRD
 10
1.2295
 20
1.1620
 30
 0.0
 42
1.0
  0
SEQEND
  8
DRD
  0
POLYLINE
  8
DRD
 66
      1
 70
1
 40
0.0050
 41
0.0050
  0
VERTEX
  8
DRD
 10
1.1995
 20
1.1870
 30
 0.0
 42
1.0
  0
VERTEX
  8
DRD
 10
1.2045
 20
1.1870
 30
 0.0
 42
1.0
  0
SEQEND
  8
DRD
  0
POLYLINE
  8
DRD
 66
      1
 70
0
 40
0.0100
 41
0.0100
  0
VERTEX
  8
DRD
 10
1.2520
 20
1.1870
 30
 0.0
  0
VERTEX
  8
DRD
 10
1.2270
 20
1.1620
 30
 0.0
  0
SEQEND
  8
DRD
  0
POLYLINE
  8
DRD
 66
      1
 70
1
 40
0.0050
 41
0.0050
  0
VERTEX
  8
DRD
 10
1.2495
 20
1.1870
 30
 0.0
 42
1.0
  0
VERTEX
  8
DRD
 10
1.2545
 20
1.1870
 30
 0.0
 42
1.0
  0
SEQEND
  8
DRD
  0
POLYLINE
  8
DRD
 66
      1
 70
1
 40
0.0050
 41
0.0050
  0
VERTEX
  8
DRD
 10
1.2245
 20
1.1620
 30
 0.0
 42
1.0
  0
VERTEX
  8
DRD
 10
1.2295
 20
1.1620
 30
 0.0
 42
1.0
  0
SEQEND
  8
DRD
  0
POLYLINE
  8
DRD
 66
      1
 70
0
 40
0.0100
 41
0.0100
  0
VERTEX
  8
DRD
 10
1.2270
 20
1.2120
 30
 0.0
  0
VERTEX
  8
DRD
 10
1.2520
 20
1.1870
 30
 0.0
  0
SEQEND
  8
DRD
  0
POLYLINE
  8
DRD
 66
      1
 70
1
 40
0.0050
 41
0.0050
  0
VERTEX
  8
DRD
 10
1.2245
 20
1.2120
 30
 0.0
 42
1.0
  0
VERTEX
  8
DRD
 10
1.2295
 20
1.2120
 30
 0.0
 42
1.0
  0
SEQEND
  8
DRD
  0
POLYLINE
  8
DRD
 66
      1
 70
1
 40
0.0050
 41
0.0050
  0
VERTEX
  8
DRD
 10
1.2495
 20
1.1870
 30
 0.0
 42
1.0
  0
VERTEX
  8
DRD
 10
1.2545
 20
1.1870
 30
 0.0
 42
1.0
  0
SEQEND
  8
DRD
  0
POLYLINE
  8
DRD
 66
      1
 70
0
 40
0.0100
 41
0.0100
  0
VERTEX
  8
DRD
 10
1.2020
 20
1.1870
 30
 0.0
  0
VERTEX
  8
DRD
 10
1.2270
 20
1.2120
 30
 0.0
  0
SEQEND
  8
DRD
  0
POLYLINE
  8
DRD
 66
      1
 70
1
 40
0.0050
 41
0.0050
  0
VERTEX
  8
DRD
 10
1.1995
 20
1.1870
 30
 0.0
 42
1.0
  0
VERTEX
  8
DRD
 10
1.2045
 20
1.1870
 30
 0.0
 42
1.0
  0
SEQEND
  8
DRD
  0
POLYLINE
  8
DRD
 66
      1
 70
1
 40
0.0050
 41
0.0050
  0
VERTEX
  8
DRD
 10
1.2245
 20
1.2120
 30
 0.0
 42
1.0
  0
VERTEX
  8
DRD
 10
1.2295
 20
1.2120
 30
 0.0
 42
1.0
  0
SEQEND
  8
DRD
  0
POLYLINE
  8
DRD
 66
      1
 70
0
 40
0.0100
 41
0.0100
  0
VERTEX
  8
DRD
 10
1.2800
 20
1.1620
 30
 0.0
  0
VERTEX
  8
DRD
 10
1.2550
 20
1.1870
 30
 0.0
  0
SEQEND
  8
DRD
  0
POLYLINE
  8
DRD
 66
      1
 70
1
 40
0.0050
 41
0.0050
  0
VERTEX
  8
DRD
 10
1.2775
 20
1.1620
 30
 0.0
 42
1.0
  0
VERTEX
  8
DRD
 10
1.2825
 20
1.1620
 30
 0.0
 42
1.0
  0
SEQEND
  8
DRD
  0
POLYLINE
  8
DRD
 66
      1
 70
1
 40
0.0050
 41
0.0050
  0
VERTEX
  8
DRD
 10
1.2525
 20
1.1870
 30
 0.0
 42
1.0
  0
VERTEX
  8
DRD
 10
1.2575
 20
1.1870
 30
 0.0
 42
1.0
  0
SEQEND
  8
DRD
  0
POLYLINE
  8
DRD
 66
      1
 70
0
 40
0.0100
 41
0.0100
  0
VERTEX
  8
DRD
 10
1.3050
 20
1.1870
 30
 0.0
  0
VERTEX
  8
DRD
 10
1.2800
 20
1.1620
 30
 0.0
  0
SEQEND
  8
DRD
  0
POLYLINE
  8
DRD
 66
      1
 70
1
 40
0.0050
 41
0.0050
  0
VERTEX
  8
DRD
 10
1.3025
 20
1.1870
 30
 0.0
 42
1.0
  0
VERTEX
  8
DRD
 10
1.3075
 20
1.1870
 30
 0.0
 42
1.0
  0
SEQEND
  8
DRD
  0
POLYLINE
  8
DRD
 66
      1
 70
1
 40
0.0050
 41
0.0050
  0
VERTEX
  8
DRD
 10
1.2775
 20
1.1620
 30
 0.0
 42
1.0
  0
VERTEX
  8
DRD
 10
1.2825
 20
1.1620
 30
 0.0
 42
1.0
  0
SEQEND
  8
DRD
  0
POLYLINE
  8
DRD
 66
      1
 70
0
 40
0.0100
 41
0.0100
  0
VERTEX
  8
DRD
 10
1.2800
 20
1.2120
 30
 0.0
  0
VERTEX
  8
DRD
 10
1.3050
 20
1.1870
 30
 0.0
  0
SEQEND
  8
DRD
  0
POLYLINE
  8
DRD
 66
      1
 70
1
 40
0.0050
 41
0.0050
  0
VERTEX
  8
DRD
 10
1.2775
 20
1.2120
 30
 0.0
 42
1.0
  0
VERTEX
  8
DRD
 10
1.2825
 20
1.2120
 30
 0.0
 42
1.0
  0
SEQEND
  8
DRD
  0
POLYLINE
  8
DRD
 66
      1
 70
1
 40
0.0050
 41
0.0050
  0
VERTEX
  8
DRD
 10
1.3025
 20
1.1870
 30
 0.0
 42
1.0
  0
VERTEX
  8
DRD
 10
1.3075
 20
1.1870
 30
 0.0
 42
1.0
  0
SEQEND
  8
DRD
  0
POLYLINE
  8
DRD
 66
      1
 70
0
 40
0.0100
 41
0.0100
  0
VERTEX
  8
DRD
 10
1.2550
 20
1.1870
 30
 0.0
  0
VERTEX
  8
DRD
 10
1.2800
 20
1.2120
 30
 0.0
  0
SEQEND
  8
DRD
  0
POLYLINE
  8
DRD
 66
      1
 70
1
 40
0.0050
 41
0.0050
  0
VERTEX
  8
DRD
 10
1.2525
 20
1.1870
 30
 0.0
 42
1.0
  0
VERTEX
  8
DRD
 10
1.2575
 20
1.1870
 30
 0.0
 42
1.0
  0
SEQEND
  8
DRD
  0
POLYLINE
  8
DRD
 66
      1
 70
1
 40
0.0050
 41
0.0050
  0
VERTEX
  8
DRD
 10
1.2775
 20
1.2120
 30
 0.0
 42
1.0
  0
VERTEX
  8
DRD
 10
1.2825
 20
1.2120
 30
 0.0
 42
1.0
  0
SEQEND
  8
DRD
  0
POLYLINE
  8
DRD
 66
      1
 70
0
 40
0.0100
 41
0.0100
  0
VERTEX
  8
DRD
 10
1.3340
 20
1.1620
 30
 0.0
  0
VERTEX
  8
DRD
 10
1.3090
 20
1.1870
 30
 0.0
  0
SEQEND
  8
DRD
  0
POLYLINE
  8
DRD
 66
      1
 70
1
 40
0.0050
 41
0.0050
  0
VERTEX
  8
DRD
 10
1.3315
 20
1.1620
 30
 0.0
 42
1.0
  0
VERTEX
  8
DRD
 10
1.3365
 20
1.1620
 30
 0.0
 42
1.0
  0
SEQEND
  8
DRD
  0
POLYLINE
  8
DRD
 66
      1
 70
1
 40
0.0050
 41
0.0050
  0
VERTEX
  8
DRD
 10
1.3065
 20
1.1870
 30
 0.0
 42
1.0
  0
VERTEX
  8
DRD
 10
1.3115
 20
1.1870
 30
 0.0
 42
1.0
  0
SEQEND
  8
DRD
  0
POLYLINE
  8
DRD
 66
      1
 70
0
 40
0.0100
 41
0.0100
  0
VERTEX
  8
DRD
 10
1.3590
 20
1.1870
 30
 0.0
  0
VERTEX
  8
DRD
 10
1.3340
 20
1.1620
 30
 0.0
  0
SEQEND
  8
DRD
  0
POLYLINE
  8
DRD
 66
      1
 70
1
 40
0.0050
 41
0.0050
  0
VERTEX
  8
DRD
 10
1.3565
 20
1.1870
 30
 0.0
 42
1.0
  0
VERTEX
  8
DRD
 10
1.3615
 20
1.1870
 30
 0.0
 42
1.0
  0
SEQEND
  8
DRD
  0
POLYLINE
  8
DRD
 66
      1
 70
1
 40
0.0050
 41
0.0050
  0
VERTEX
  8
DRD
 10
1.3315
 20
1.1620
 30
 0.0
 42
1.0
  0
VERTEX
  8
DRD
 10
1.3365
 20
1.1620
 30
 0.0
 42
1.0
  0
SEQEND
  8
DRD
  0
POLYLINE
  8
DRD
 66
      1
 70
0
 40
0.0100
 41
0.0100
  0
VERTEX
  8
DRD
 10
1.3340
 20
1.2120
 30
 0.0
  0
VERTEX
  8
DRD
 10
1.3590
 20
1.1870
 30
 0.0
  0
SEQEND
  8
DRD
  0
POLYLINE
  8
DRD
 66
      1
 70
1
 40
0.0050
 41
0.0050
  0
VERTEX
  8
DRD
 10
1.3315
 20
1.2120
 30
 0.0
 42
1.0
  0
VERTEX
  8
DRD
 10
1.3365
 20
1.2120
 30
 0.0
 42
1.0
  0
SEQEND
  8
DRD
  0
POLYLINE
  8
DRD
 66
      1
 70
1
 40
0.0050
 41
0.0050
  0
VERTEX
  8
DRD
 10
1.3565
 20
1.1870
 30
 0.0
 42
1.0
  0
VERTEX
  8
DRD
 10
1.3615
 20
1.1870
 30
 0.0
 42
1.0
  0
SEQEND
  8
DRD
  0
POLYLINE
  8
DRD
 66
      1
 70
0
 40
0.0100
 41
0.0100
  0
VERTEX
  8
DRD
 10
1.3090
 20
1.1870
 30
 0.0
  0
VERTEX
  8
DRD
 10
1.3340
 20
1.2120
 30
 0.0
  0
SEQEND
  8
DRD
  0
POLYLINE
  8
DRD
 66
      1
 70
1
 40
0.0050
 41
0.0050
  0
VERTEX
  8
DRD
 10
1.3065
 20
1.1870
 30
 0.0
 42
1.0
  0
VERTEX
  8
DRD
 10
1.3115
 20
1.1870
 30
 0.0
 42
1.0
  0
SEQEND
  8
DRD
  0
POLYLINE
  8
DRD
 66
      1
 70
1
 40
0.0050
 41
0.0050
  0
VERTEX
  8
DRD
 10
1.3315
 20
1.2120
 30
 0.0
 42
1.0
  0
VERTEX
  8
DRD
 10
1.3365
 20
1.2120
 30
 0.0
 42
1.0
  0
SEQEND
  8
DRD
  0
POLYLINE
  8
DRD
 66
      1
 70
0
 40
0.0100
 41
0.0100
  0
VERTEX
  8
DRD
 10
1.3840
 20
1.1620
 30
 0.0
  0
VERTEX
  8
DRD
 10
1.3590
 20
1.1870
 30
 0.0
  0
SEQEND
  8
DRD
  0
POLYLINE
  8
DRD
 66
      1
 70
1
 40
0.0050
 41
0.0050
  0
VERTEX
  8
DRD
 10
1.3815
 20
1.1620
 30
 0.0
 42
1.0
  0
VERTEX
  8
DRD
 10
1.3865
 20
1.1620
 30
 0.0
 42
1.0
  0
SEQEND
  8
DRD
  0
POLYLINE
  8
DRD
 66
      1
 70
1
 40
0.0050
 41
0.0050
  0
VERTEX
  8
DRD
 10
1.3565
 20
1.1870
 30
 0.0
 42
1.0
  0
VERTEX
  8
DRD
 10
1.3615
 20
1.1870
 30
 0.0
 42
1.0
  0
SEQEND
  8
DRD
  0
POLYLINE
  8
DRD
 66
      1
 70
0
 40
0.0100
 41
0.0100
  0
VERTEX
  8
DRD
 10
1.4090
 20
1.1870
 30
 0.0
  0
VERTEX
  8
DRD
 10
1.3840
 20
1.1620
 30
 0.0
  0
SEQEND
  8
DRD
  0
POLYLINE
  8
DRD
 66
      1
 70
1
 40
0.0050
 41
0.0050
  0
VERTEX
  8
DRD
 10
1.4065
 20
1.1870
 30
 0.0
 42
1.0
  0
VERTEX
  8
DRD
 10
1.4115
 20
1.1870
 30
 0.0
 42
1.0
  0
SEQEND
  8
DRD
  0
POLYLINE
  8
DRD
 66
      1
 70
1
 40
0.0050
 41
0.0050
  0
VERTEX
  8
DRD
 10
1.3815
 20
1.1620
 30
 0.0
 42
1.0
  0
VERTEX
  8
DRD
 10
1.3865
 20
1.1620
 30
 0.0
 42
1.0
  0
SEQEND
  8
DRD
  0
POLYLINE
  8
DRD
 66
      1
 70
0
 40
0.0100
 41
0.0100
  0
VERTEX
  8
DRD
 10
1.3840
 20
1.2120
 30
 0.0
  0
VERTEX
  8
DRD
 10
1.4090
 20
1.1870
 30
 0.0
  0
SEQEND
  8
DRD
  0
POLYLINE
  8
DRD
 66
      1
 70
1
 40
0.0050
 41
0.0050
  0
VERTEX
  8
DRD
 10
1.3815
 20
1.2120
 30
 0.0
 42
1.0
  0
VERTEX
  8
DRD
 10
1.3865
 20
1.2120
 30
 0.0
 42
1.0
  0
SEQEND
  8
DRD
  0
POLYLINE
  8
DRD
 66
      1
 70
1
 40
0.0050
 41
0.0050
  0
VERTEX
  8
DRD
 10
1.4065
 20
1.1870
 30
 0.0
 42
1.0
  0
VERTEX
  8
DRD
 10
1.4115
 20
1.1870
 30
 0.0
 42
1.0
  0
SEQEND
  8
DRD
  0
POLYLINE
  8
DRD
 66
      1
 70
0
 40
0.0100
 41
0.0100
  0
VERTEX
  8
DRD
 10
1.3590
 20
1.1870
 30
 0.0
  0
VERTEX
  8
DRD
 10
1.3840
 20
1.2120
 30
 0.0
  0
SEQEND
  8
DRD
  0
POLYLINE
  8
DRD
 66
      1
 70
1
 40
0.0050
 41
0.0050
  0
VERTEX
  8
DRD
 10
1.3565
 20
1.1870
 30
 0.0
 42
1.0
  0
VERTEX
  8
DRD
 10
1.3615
 20
1.1870
 30
 0.0
 42
1.0
  0
SEQEND
  8
DRD
  0
POLYLINE
  8
DRD
 66
      1
 70
1
 40
0.0050
 41
0.0050
  0
VERTEX
  8
DRD
 10
1.3815
 20
1.2120
 30
 0.0
 42
1.0
  0
VERTEX
  8
DRD
 10
1.3865
 20
1.2120
 30
 0.0
 42
1.0
  0
SEQEND
  8
DRD
  0
POLYLINE
  8
DRD
 66
      1
 70
0
 40
0.0100
 41
0.0100
  0
VERTEX
  8
DRD
 10
1.3320
 20
1.3990
 30
 0.0
  0
VERTEX
  8
DRD
 10
1.3070
 20
1.4240
 30
 0.0
  0
SEQEND
  8
DRD
  0
POLYLINE
  8
DRD
 66
      1
 70
1
 40
0.0050
 41
0.0050
  0
VERTEX
  8
DRD
 10
1.3295
 20
1.3990
 30
 0.0
 42
1.0
  0
VERTEX
  8
DRD
 10
1.3345
 20
1.3990
 30
 0.0
 42
1.0
  0
SEQEND
  8
DRD
  0
POLYLINE
  8
DRD
 66
      1
 70
1
 40
0.0050
 41
0.0050
  0
VERTEX
  8
DRD
 10
1.3045
 20
1.4240
 30
 0.0
 42
1.0
  0
VERTEX
  8
DRD
 10
1.3095
 20
1.4240
 30
 0.0
 42
1.0
  0
SEQEND
  8
DRD
  0
POLYLINE
  8
DRD
 66
      1
 70
0
 40
0.0100
 41
0.0100
  0
VERTEX
  8
DRD
 10
1.3570
 20
1.4240
 30
 0.0
  0
VERTEX
  8
DRD
 10
1.3320
 20
1.3990
 30
 0.0
  0
SEQEND
  8
DRD
  0
POLYLINE
  8
DRD
 66
      1
 70
1
 40
0.0050
 41
0.0050
  0
VERTEX
  8
DRD
 10
1.3545
 20
1.4240
 30
 0.0
 42
1.0
  0
VERTEX
  8
DRD
 10
1.3595
 20
1.4240
 30
 0.0
 42
1.0
  0
SEQEND
  8
DRD
  0
POLYLINE
  8
DRD
 66
      1
 70
1
 40
0.0050
 41
0.0050
  0
VERTEX
  8
DRD
 10
1.3295
 20
1.3990
 30
 0.0
 42
1.0
  0
VERTEX
  8
DRD
 10
1.3345
 20
1.3990
 30
 0.0
 42
1.0
  0
SEQEND
  8
DRD
  0
POLYLINE
  8
DRD
 66
      1
 70
0
 40
0.0100
 41
0.0100
  0
VERTEX
  8
DRD
 10
1.3320
 20
1.4490
 30
 0.0
  0
VERTEX
  8
DRD
 10
1.3570
 20
1.4240
 30
 0.0
  0
SEQEND
  8
DRD
  0
POLYLINE
  8
DRD
 66
      1
 70
1
 40
0.0050
 41
0.0050
  0
VERTEX
  8
DRD
 10
1.3295
 20
1.4490
 30
 0.0
 42
1.0
  0
VERTEX
  8
DRD
 10
1.3345
 20
1.4490
 30
 0.0
 42
1.0
  0
SEQEND
  8
DRD
  0
POLYLINE
  8
DRD
 66
      1
 70
1
 40
0.0050
 41
0.0050
  0
VERTEX
  8
DRD
 10
1.3545
 20
1.4240
 30
 0.0
 42
1.0
  0
VERTEX
  8
DRD
 10
1.3595
 20
1.4240
 30
 0.0
 42
1.0
  0
SEQEND
  8
DRD
  0
POLYLINE
  8
DRD
 66
      1
 70
0
 40
0.0100
 41
0.0100
  0
VERTEX
  8
DRD
 10
1.3070
 20
1.4240
 30
 0.0
  0
VERTEX
  8
DRD
 10
1.3320
 20
1.4490
 30
 0.0
  0
SEQEND
  8
DRD
  0
POLYLINE
  8
DRD
 66
      1
 70
1
 40
0.0050
 41
0.0050
  0
VERTEX
  8
DRD
 10
1.3045
 20
1.4240
 30
 0.0
 42
1.0
  0
VERTEX
  8
DRD
 10
1.3095
 20
1.4240
 30
 0.0
 42
1.0
  0
SEQEND
  8
DRD
  0
POLYLINE
  8
DRD
 66
      1
 70
1
 40
0.0050
 41
0.0050
  0
VERTEX
  8
DRD
 10
1.3295
 20
1.4490
 30
 0.0
 42
1.0
  0
VERTEX
  8
DRD
 10
1.3345
 20
1.4490
 30
 0.0
 42
1.0
  0
SEQEND
  8
DRD
  0
POLYLINE
  8
DRD
 66
      1
 70
0
 40
0.0100
 41
0.0100
  0
VERTEX
  8
DRD
 10
1.3850
 20
1.3980
 30
 0.0
  0
VERTEX
  8
DRD
 10
1.3600
 20
1.4230
 30
 0.0
  0
SEQEND
  8
DRD
  0
POLYLINE
  8
DRD
 66
      1
 70
1
 40
0.0050
 41
0.0050
  0
VERTEX
  8
DRD
 10
1.3825
 20
1.3980
 30
 0.0
 42
1.0
  0
VERTEX
  8
DRD
 10
1.3875
 20
1.3980
 30
 0.0
 42
1.0
  0
SEQEND
  8
DRD
  0
POLYLINE
  8
DRD
 66
      1
 70
1
 40
0.0050
 41
0.0050
  0
VERTEX
  8
DRD
 10
1.3575
 20
1.4230
 30
 0.0
 42
1.0
  0
VERTEX
  8
DRD
 10
1.3625
 20
1.4230
 30
 0.0
 42
1.0
  0
SEQEND
  8
DRD
  0
POLYLINE
  8
DRD
 66
      1
 70
0
 40
0.0100
 41
0.0100
  0
VERTEX
  8
DRD
 10
1.4100
 20
1.4230
 30
 0.0
  0
VERTEX
  8
DRD
 10
1.3850
 20
1.3980
 30
 0.0
  0
SEQEND
  8
DRD
  0
POLYLINE
  8
DRD
 66
      1
 70
1
 40
0.0050
 41
0.0050
  0
VERTEX
  8
DRD
 10
1.4075
 20
1.4230
 30
 0.0
 42
1.0
  0
VERTEX
  8
DRD
 10
1.4125
 20
1.4230
 30
 0.0
 42
1.0
  0
SEQEND
  8
DRD
  0
POLYLINE
  8
DRD
 66
      1
 70
1
 40
0.0050
 41
0.0050
  0
VERTEX
  8
DRD
 10
1.3825
 20
1.3980
 30
 0.0
 42
1.0
  0
VERTEX
  8
DRD
 10
1.3875
 20
1.3980
 30
 0.0
 42
1.0
  0
SEQEND
  8
DRD
  0
POLYLINE
  8
DRD
 66
      1
 70
0
 40
0.0100
 41
0.0100
  0
VERTEX
  8
DRD
 10
1.3850
 20
1.4480
 30
 0.0
  0
VERTEX
  8
DRD
 10
1.4100
 20
1.4230
 30
 0.0
  0
SEQEND
  8
DRD
  0
POLYLINE
  8
DRD
 66
      1
 70
1
 40
0.0050
 41
0.0050
  0
VERTEX
  8
DRD
 10
1.3825
 20
1.4480
 30
 0.0
 42
1.0
  0
VERTEX
  8
DRD
 10
1.3875
 20
1.4480
 30
 0.0
 42
1.0
  0
SEQEND
  8
DRD
  0
POLYLINE
  8
DRD
 66
      1
 70
1
 40
0.0050
 41
0.0050
  0
VERTEX
  8
DRD
 10
1.4075
 20
1.4230
 30
 0.0
 42
1.0
  0
VERTEX
  8
DRD
 10
1.4125
 20
1.4230
 30
 0.0
 42
1.0
  0
SEQEND
  8
DRD
  0
POLYLINE
  8
DRD
 66
      1
 70
0
 40
0.0100
 41
0.0100
  0
VERTEX
  8
DRD
 10
1.3600
 20
1.4230
 30
 0.0
  0
VERTEX
  8
DRD
 10
1.3850
 20
1.4480
 30
 0.0
  0
SEQEND
  8
DRD
  0
POLYLINE
  8
DRD
 66
      1
 70
1
 40
0.0050
 41
0.0050
  0
VERTEX
  8
DRD
 10
1.3575
 20
1.4230
 30
 0.0
 42
1.0
  0
VERTEX
  8
DRD
 10
1.3625
 20
1.4230
 30
 0.0
 42
1.0
  0
SEQEND
  8
DRD
  0
POLYLINE
  8
DRD
 66
      1
 70
1
 40
0.0050
 41
0.0050
  0
VERTEX
  8
DRD
 10
1.3825
 20
1.4480
 30
 0.0
 42
1.0
  0
VERTEX
  8
DRD
 10
1.3875
 20
1.4480
 30
 0.0
 42
1.0
  0
SEQEND
  8
DRD
  0
POLYLINE
  8
DRD
 66
      1
 70
0
 40
0.0100
 41
0.0100
  0
VERTEX
  8
DRD
 10
1.2810
 20
1.3990
 30
 0.0
  0
VERTEX
  8
DRD
 10
1.2560
 20
1.4240
 30
 0.0
  0
SEQEND
  8
DRD
  0
POLYLINE
  8
DRD
 66
      1
 70
1
 40
0.0050
 41
0.0050
  0
VERTEX
  8
DRD
 10
1.2785
 20
1.3990
 30
 0.0
 42
1.0
  0
VERTEX
  8
DRD
 10
1.2835
 20
1.3990
 30
 0.0
 42
1.0
  0
SEQEND
  8
DRD
  0
POLYLINE
  8
DRD
 66
      1
 70
1
 40
0.0050
 41
0.0050
  0
VERTEX
  8
DRD
 10
1.2535
 20
1.4240
 30
 0.0
 42
1.0
  0
VERTEX
  8
DRD
 10
1.2585
 20
1.4240
 30
 0.0
 42
1.0
  0
SEQEND
  8
DRD
  0
POLYLINE
  8
DRD
 66
      1
 70
0
 40
0.0100
 41
0.0100
  0
VERTEX
  8
DRD
 10
1.3060
 20
1.4240
 30
 0.0
  0
VERTEX
  8
DRD
 10
1.2810
 20
1.3990
 30
 0.0
  0
SEQEND
  8
DRD
  0
POLYLINE
  8
DRD
 66
      1
 70
1
 40
0.0050
 41
0.0050
  0
VERTEX
  8
DRD
 10
1.3035
 20
1.4240
 30
 0.0
 42
1.0
  0
VERTEX
  8
DRD
 10
1.3085
 20
1.4240
 30
 0.0
 42
1.0
  0
SEQEND
  8
DRD
  0
POLYLINE
  8
DRD
 66
      1
 70
1
 40
0.0050
 41
0.0050
  0
VERTEX
  8
DRD
 10
1.2785
 20
1.3990
 30
 0.0
 42
1.0
  0
VERTEX
  8
DRD
 10
1.2835
 20
1.3990
 30
 0.0
 42
1.0
  0
SEQEND
  8
DRD
  0
POLYLINE
  8
DRD
 66
      1
 70
0
 40
0.0100
 41
0.0100
  0
VERTEX
  8
DRD
 10
1.2810
 20
1.4490
 30
 0.0
  0
VERTEX
  8
DRD
 10
1.3060
 20
1.4240
 30
 0.0
  0
SEQEND
  8
DRD
  0
POLYLINE
  8
DRD
 66
      1
 70
1
 40
0.0050
 41
0.0050
  0
VERTEX
  8
DRD
 10
1.2785
 20
1.4490
 30
 0.0
 42
1.0
  0
VERTEX
  8
DRD
 10
1.2835
 20
1.4490
 30
 0.0
 42
1.0
  0
SEQEND
  8
DRD
  0
POLYLINE
  8
DRD
 66
      1
 70
1
 40
0.0050
 41
0.0050
  0
VERTEX
  8
DRD
 10
1.3035
 20
1.4240
 30
 0.0
 42
1.0
  0
VERTEX
  8
DRD
 10
1.3085
 20
1.4240
 30
 0.0
 42
1.0
  0
SEQEND
  8
DRD
  0
POLYLINE
  8
DRD
 66
      1
 70
0
 40
0.0100
 41
0.0100
  0
VERTEX
  8
DRD
 10
1.2560
 20
1.4240
 30
 0.0
  0
VERTEX
  8
DRD
 10
1.2810
 20
1.4490
 30
 0.0
  0
SEQEND
  8
DRD
  0
POLYLINE
  8
DRD
 66
      1
 70
1
 40
0.0050
 41
0.0050
  0
VERTEX
  8
DRD
 10
1.2535
 20
1.4240
 30
 0.0
 42
1.0
  0
VERTEX
  8
DRD
 10
1.2585
 20
1.4240
 30
 0.0
 42
1.0
  0
SEQEND
  8
DRD
  0
POLYLINE
  8
DRD
 66
      1
 70
1
 40
0.0050
 41
0.0050
  0
VERTEX
  8
DRD
 10
1.2785
 20
1.4490
 30
 0.0
 42
1.0
  0
VERTEX
  8
DRD
 10
1.2835
 20
1.4490
 30
 0.0
 42
1.0
  0
SEQEND
  8
DRD
  0
POLYLINE
  8
DRD
 66
      1
 70
0
 40
0.0100
 41
0.0100
  0
VERTEX
  8
DRD
 10
1.2280
 20
1.3980
 30
 0.0
  0
VERTEX
  8
DRD
 10
1.2030
 20
1.4230
 30
 0.0
  0
SEQEND
  8
DRD
  0
POLYLINE
  8
DRD
 66
      1
 70
1
 40
0.0050
 41
0.0050
  0
VERTEX
  8
DRD
 10
1.2255
 20
1.3980
 30
 0.0
 42
1.0
  0
VERTEX
  8
DRD
 10
1.2305
 20
1.3980
 30
 0.0
 42
1.0
  0
SEQEND
  8
DRD
  0
POLYLINE
  8
DRD
 66
      1
 70
1
 40
0.0050
 41
0.0050
  0
VERTEX
  8
DRD
 10
1.2005
 20
1.4230
 30
 0.0
 42
1.0
  0
VERTEX
  8
DRD
 10
1.2055
 20
1.4230
 30
 0.0
 42
1.0
  0
SEQEND
  8
DRD
  0
POLYLINE
  8
DRD
 66
      1
 70
0
 40
0.0100
 41
0.0100
  0
VERTEX
  8
DRD
 10
1.2530
 20
1.4230
 30
 0.0
  0
VERTEX
  8
DRD
 10
1.2280
 20
1.3980
 30
 0.0
  0
SEQEND
  8
DRD
  0
POLYLINE
  8
DRD
 66
      1
 70
1
 40
0.0050
 41
0.0050
  0
VERTEX
  8
DRD
 10
1.2505
 20
1.4230
 30
 0.0
 42
1.0
  0
VERTEX
  8
DRD
 10
1.2555
 20
1.4230
 30
 0.0
 42
1.0
  0
SEQEND
  8
DRD
  0
POLYLINE
  8
DRD
 66
      1
 70
1
 40
0.0050
 41
0.0050
  0
VERTEX
  8
DRD
 10
1.2255
 20
1.3980
 30
 0.0
 42
1.0
  0
VERTEX
  8
DRD
 10
1.2305
 20
1.3980
 30
 0.0
 42
1.0
  0
SEQEND
  8
DRD
  0
POLYLINE
  8
DRD
 66
      1
 70
0
 40
0.0100
 41
0.0100
  0
VERTEX
  8
DRD
 10
1.2280
 20
1.4480
 30
 0.0
  0
VERTEX
  8
DRD
 10
1.2530
 20
1.4230
 30
 0.0
  0
SEQEND
  8
DRD
  0
POLYLINE
  8
DRD
 66
      1
 70
1
 40
0.0050
 41
0.0050
  0
VERTEX
  8
DRD
 10
1.2255
 20
1.4480
 30
 0.0
 42
1.0
  0
VERTEX
  8
DRD
 10
1.2305
 20
1.4480
 30
 0.0
 42
1.0
  0
SEQEND
  8
DRD
  0
POLYLINE
  8
DRD
 66
      1
 70
1
 40
0.0050
 41
0.0050
  0
VERTEX
  8
DRD
 10
1.2505
 20
1.4230
 30
 0.0
 42
1.0
  0
VERTEX
  8
DRD
 10
1.2555
 20
1.4230
 30
 0.0
 42
1.0
  0
SEQEND
  8
DRD
  0
POLYLINE
  8
DRD
 66
      1
 70
0
 40
0.0100
 41
0.0100
  0
VERTEX
  8
DRD
 10
1.2030
 20
1.4230
 30
 0.0
  0
VERTEX
  8
DRD
 10
1.2280
 20
1.4480
 30
 0.0
  0
SEQEND
  8
DRD
  0
POLYLINE
  8
DRD
 66
      1
 70
1
 40
0.0050
 41
0.0050
  0
VERTEX
  8
DRD
 10
1.2005
 20
1.4230
 30
 0.0
 42
1.0
  0
VERTEX
  8
DRD
 10
1.2055
 20
1.4230
 30
 0.0
 42
1.0
  0
SEQEND
  8
DRD
  0
POLYLINE
  8
DRD
 66
      1
 70
1
 40
0.0050
 41
0.0050
  0
VERTEX
  8
DRD
 10
1.2255
 20
1.4480
 30
 0.0
 42
1.0
  0
VERTEX
  8
DRD
 10
1.2305
 20
1.4480
 30
 0.0
 42
1.0
  0
SEQEND
  8
DRD
  0
POLYLINE
  8
DRD
 66
      1
 70
0
 40
0.0100
 41
0.0100
  0
VERTEX
  8
DRD
 10
1.2530
 20
1.4330
 30
 0.0
  0
VERTEX
  8
DRD
 10
1.2280
 20
1.4580
 30
 0.0
  0
SEQEND
  8
DRD
  0
POLYLINE
  8
DRD
 66
      1
 70
1
 40
0.0050
 41
0.0050
  0
VERTEX
  8
DRD
 10
1.2505
 20
1.4330
 30
 0.0
 42
1.0
  0
VERTEX
  8
DRD
 10
1.2555
 20
1.4330
 30
 0.0
 42
1.0
  0
SEQEND
  8
DRD
  0
POLYLINE
  8
DRD
 66
      1
 70
1
 40
0.0050
 41
0.0050
  0
VERTEX
  8
DRD
 10
1.2255
 20
1.4580
 30
 0.0
 42
1.0
  0
VERTEX
  8
DRD
 10
1.2305
 20
1.4580
 30
 0.0
 42
1.0
  0
SEQEND
  8
DRD
  0
POLYLINE
  8
DRD
 66
      1
 70
0
 40
0.0100
 41
0.0100
  0
VERTEX
  8
DRD
 10
1.2780
 20
1.4580
 30
 0.0
  0
VERTEX
  8
DRD
 10
1.2530
 20
1.4330
 30
 0.0
  0
SEQEND
  8
DRD
  0
POLYLINE
  8
DRD
 66
      1
 70
1
 40
0.0050
 41
0.0050
  0
VERTEX
  8
DRD
 10
1.2755
 20
1.4580
 30
 0.0
 42
1.0
  0
VERTEX
  8
DRD
 10
1.2805
 20
1.4580
 30
 0.0
 42
1.0
  0
SEQEND
  8
DRD
  0
POLYLINE
  8
DRD
 66
      1
 70
1
 40
0.0050
 41
0.0050
  0
VERTEX
  8
DRD
 10
1.2505
 20
1.4330
 30
 0.0
 42
1.0
  0
VERTEX
  8
DRD
 10
1.2555
 20
1.4330
 30
 0.0
 42
1.0
  0
SEQEND
  8
DRD
  0
POLYLINE
  8
DRD
 66
      1
 70
0
 40
0.0100
 41
0.0100
  0
VERTEX
  8
DRD
 10
1.2530
 20
1.4830
 30
 0.0
  0
VERTEX
  8
DRD
 10
1.2780
 20
1.4580
 30
 0.0
  0
SEQEND
  8
DRD
  0
POLYLINE
  8
DRD
 66
      1
 70
1
 40
0.0050
 41
0.0050
  0
VERTEX
  8
DRD
 10
1.2505
 20
1.4830
 30
 0.0
 42
1.0
  0
VERTEX
  8
DRD
 10
1.2555
 20
1.4830
 30
 0.0
 42
1.0
  0
SEQEND
  8
DRD
  0
POLYLINE
  8
DRD
 66
      1
 70
1
 40
0.0050
 41
0.0050
  0
VERTEX
  8
DRD
 10
1.2755
 20
1.4580
 30
 0.0
 42
1.0
  0
VERTEX
  8
DRD
 10
1.2805
 20
1.4580
 30
 0.0
 42
1.0
  0
SEQEND
  8
DRD
  0
POLYLINE
  8
DRD
 66
      1
 70
0
 40
0.0100
 41
0.0100
  0
VERTEX
  8
DRD
 10
1.2280
 20
1.4580
 30
 0.0
  0
VERTEX
  8
DRD
 10
1.2530
 20
1.4830
 30
 0.0
  0
SEQEND
  8
DRD
  0
POLYLINE
  8
DRD
 66
      1
 70
1
 40
0.0050
 41
0.0050
  0
VERTEX
  8
DRD
 10
1.2255
 20
1.4580
 30
 0.0
 42
1.0
  0
VERTEX
  8
DRD
 10
1.2305
 20
1.4580
 30
 0.0
 42
1.0
  0
SEQEND
  8
DRD
  0
POLYLINE
  8
DRD
 66
      1
 70
1
 40
0.0050
 41
0.0050
  0
VERTEX
  8
DRD
 10
1.2505
 20
1.4830
 30
 0.0
 42
1.0
  0
VERTEX
  8
DRD
 10
1.2555
 20
1.4830
 30
 0.0
 42
1.0
  0
SEQEND
  8
DRD
  0
POLYLINE
  8
DRD
 66
      1
 70
0
 40
0.0100
 41
0.0100
  0
VERTEX
  8
DRD
 10
1.3080
 20
1.4330
 30
 0.0
  0
VERTEX
  8
DRD
 10
1.2830
 20
1.4580
 30
 0.0
  0
SEQEND
  8
DRD
  0
POLYLINE
  8
DRD
 66
      1
 70
1
 40
0.0050
 41
0.0050
  0
VERTEX
  8
DRD
 10
1.3055
 20
1.4330
 30
 0.0
 42
1.0
  0
VERTEX
  8
DRD
 10
1.3105
 20
1.4330
 30
 0.0
 42
1.0
  0
SEQEND
  8
DRD
  0
POLYLINE
  8
DRD
 66
      1
 70
1
 40
0.0050
 41
0.0050
  0
VERTEX
  8
DRD
 10
1.2805
 20
1.4580
 30
 0.0
 42
1.0
  0
VERTEX
  8
DRD
 10
1.2855
 20
1.4580
 30
 0.0
 42
1.0
  0
SEQEND
  8
DRD
  0
POLYLINE
  8
DRD
 66
      1
 70
0
 40
0.0100
 41
0.0100
  0
VERTEX
  8
DRD
 10
1.3330
 20
1.4580
 30
 0.0
  0
VERTEX
  8
DRD
 10
1.3080
 20
1.4330
 30
 0.0
  0
SEQEND
  8
DRD
  0
POLYLINE
  8
DRD
 66
      1
 70
1
 40
0.0050
 41
0.0050
  0
VERTEX
  8
DRD
 10
1.3305
 20
1.4580
 30
 0.0
 42
1.0
  0
VERTEX
  8
DRD
 10
1.3355
 20
1.4580
 30
 0.0
 42
1.0
  0
SEQEND
  8
DRD
  0
POLYLINE
  8
DRD
 66
      1
 70
1
 40
0.0050
 41
0.0050
  0
VERTEX
  8
DRD
 10
1.3055
 20
1.4330
 30
 0.0
 42
1.0
  0
VERTEX
  8
DRD
 10
1.3105
 20
1.4330
 30
 0.0
 42
1.0
  0
SEQEND
  8
DRD
  0
POLYLINE
  8
DRD
 66
      1
 70
0
 40
0.0100
 41
0.0100
  0
VERTEX
  8
DRD
 10
1.3080
 20
1.4830
 30
 0.0
  0
VERTEX
  8
DRD
 10
1.3330
 20
1.4580
 30
 0.0
  0
SEQEND
  8
DRD
  0
POLYLINE
  8
DRD
 66
      1
 70
1
 40
0.0050
 41
0.0050
  0
VERTEX
  8
DRD
 10
1.3055
 20
1.4830
 30
 0.0
 42
1.0
  0
VERTEX
  8
DRD
 10
1.3105
 20
1.4830
 30
 0.0
 42
1.0
  0
SEQEND
  8
DRD
  0
POLYLINE
  8
DRD
 66
      1
 70
1
 40
0.0050
 41
0.0050
  0
VERTEX
  8
DRD
 10
1.3305
 20
1.4580
 30
 0.0
 42
1.0
  0
VERTEX
  8
DRD
 10
1.3355
 20
1.4580
 30
 0.0
 42
1.0
  0
SEQEND
  8
DRD
  0
POLYLINE
  8
DRD
 66
      1
 70
0
 40
0.0100
 41
0.0100
  0
VERTEX
  8
DRD
 10
1.2830
 20
1.4580
 30
 0.0
  0
VERTEX
  8
DRD
 10
1.3080
 20
1.4830
 30
 0.0
  0
SEQEND
  8
DRD
  0
POLYLINE
  8
DRD
 66
      1
 70
1
 40
0.0050
 41
0.0050
  0
VERTEX
  8
DRD
 10
1.2805
 20
1.4580
 30
 0.0
 42
1.0
  0
VERTEX
  8
DRD
 10
1.2855
 20
1.4580
 30
 0.0
 42
1.0
  0
SEQEND
  8
DRD
  0
POLYLINE
  8
DRD
 66
      1
 70
1
 40
0.0050
 41
0.0050
  0
VERTEX
  8
DRD
 10
1.3055
 20
1.4830
 30
 0.0
 42
1.0
  0
VERTEX
  8
DRD
 10
1.3105
 20
1.4830
 30
 0.0
 42
1.0
  0
SEQEND
  8
DRD
  0
POLYLINE
  8
DRD
 66
      1
 70
0
 40
0.0100
 41
0.0100
  0
VERTEX
  8
DRD
 10
1.3600
 20
1.4340
 30
 0.0
  0
VERTEX
  8
DRD
 10
1.3350
 20
1.4590
 30
 0.0
  0
SEQEND
  8
DRD
  0
POLYLINE
  8
DRD
 66
      1
 70
1
 40
0.0050
 41
0.0050
  0
VERTEX
  8
DRD
 10
1.3575
 20
1.4340
 30
 0.0
 42
1.0
  0
VERTEX
  8
DRD
 10
1.3625
 20
1.4340
 30
 0.0
 42
1.0
  0
SEQEND
  8
DRD
  0
POLYLINE
  8
DRD
 66
      1
 70
1
 40
0.0050
 41
0.0050
  0
VERTEX
  8
DRD
 10
1.3325
 20
1.4590
 30
 0.0
 42
1.0
  0
VERTEX
  8
DRD
 10
1.3375
 20
1.4590
 30
 0.0
 42
1.0
  0
SEQEND
  8
DRD
  0
POLYLINE
  8
DRD
 66
      1
 70
0
 40
0.0100
 41
0.0100
  0
VERTEX
  8
DRD
 10
1.3850
 20
1.4590
 30
 0.0
  0
VERTEX
  8
DRD
 10
1.3600
 20
1.4340
 30
 0.0
  0
SEQEND
  8
DRD
  0
POLYLINE
  8
DRD
 66
      1
 70
1
 40
0.0050
 41
0.0050
  0
VERTEX
  8
DRD
 10
1.3825
 20
1.4590
 30
 0.0
 42
1.0
  0
VERTEX
  8
DRD
 10
1.3875
 20
1.4590
 30
 0.0
 42
1.0
  0
SEQEND
  8
DRD
  0
POLYLINE
  8
DRD
 66
      1
 70
1
 40
0.0050
 41
0.0050
  0
VERTEX
  8
DRD
 10
1.3575
 20
1.4340
 30
 0.0
 42
1.0
  0
VERTEX
  8
DRD
 10
1.3625
 20
1.4340
 30
 0.0
 42
1.0
  0
SEQEND
  8
DRD
  0
POLYLINE
  8
DRD
 66
      1
 70
0
 40
0.0100
 41
0.0100
  0
VERTEX
  8
DRD
 10
1.3600
 20
1.4840
 30
 0.0
  0
VERTEX
  8
DRD
 10
1.3850
 20
1.4590
 30
 0.0
  0
SEQEND
  8
DRD
  0
POLYLINE
  8
DRD
 66
      1
 70
1
 40
0.0050
 41
0.0050
  0
VERTEX
  8
DRD
 10
1.3575
 20
1.4840
 30
 0.0
 42
1.0
  0
VERTEX
  8
DRD
 10
1.3625
 20
1.4840
 30
 0.0
 42
1.0
  0
SEQEND
  8
DRD
  0
POLYLINE
  8
DRD
 66
      1
 70
1
 40
0.0050
 41
0.0050
  0
VERTEX
  8
DRD
 10
1.3825
 20
1.4590
 30
 0.0
 42
1.0
  0
VERTEX
  8
DRD
 10
1.3875
 20
1.4590
 30
 0.0
 42
1.0
  0
SEQEND
  8
DRD
  0
POLYLINE
  8
DRD
 66
      1
 70
0
 40
0.0100
 41
0.0100
  0
VERTEX
  8
DRD
 10
1.3350
 20
1.4590
 30
 0.0
  0
VERTEX
  8
DRD
 10
1.3600
 20
1.4840
 30
 0.0
  0
SEQEND
  8
DRD
  0
POLYLINE
  8
DRD
 66
      1
 70
1
 40
0.0050
 41
0.0050
  0
VERTEX
  8
DRD
 10
1.3325
 20
1.4590
 30
 0.0
 42
1.0
  0
VERTEX
  8
DRD
 10
1.3375
 20
1.4590
 30
 0.0
 42
1.0
  0
SEQEND
  8
DRD
  0
POLYLINE
  8
DRD
 66
      1
 70
1
 40
0.0050
 41
0.0050
  0
VERTEX
  8
DRD
 10
1.3575
 20
1.4840
 30
 0.0
 42
1.0
  0
VERTEX
  8
DRD
 10
1.3625
 20
1.4840
 30
 0.0
 42
1.0
  0
SEQEND
  8
DRD
  0
POLYLINE
  8
DRD
 66
      1
 70
0
 40
0.0100
 41
0.0100
  0
VERTEX
  8
DRD
 10
1.4060
 20
1.4330
 30
 0.0
  0
VERTEX
  8
DRD
 10
1.3810
 20
1.4580
 30
 0.0
  0
SEQEND
  8
DRD
  0
POLYLINE
  8
DRD
 66
      1
 70
1
 40
0.0050
 41
0.0050
  0
VERTEX
  8
DRD
 10
1.4035
 20
1.4330
 30
 0.0
 42
1.0
  0
VERTEX
  8
DRD
 10
1.4085
 20
1.4330
 30
 0.0
 42
1.0
  0
SEQEND
  8
DRD
  0
POLYLINE
  8
DRD
 66
      1
 70
1
 40
0.0050
 41
0.0050
  0
VERTEX
  8
DRD
 10
1.3785
 20
1.4580
 30
 0.0
 42
1.0
  0
VERTEX
  8
DRD
 10
1.3835
 20
1.4580
 30
 0.0
 42
1.0
  0
SEQEND
  8
DRD
  0
POLYLINE
  8
DRD
 66
      1
 70
0
 40
0.0100
 41
0.0100
  0
VERTEX
  8
DRD
 10
1.4310
 20
1.4580
 30
 0.0
  0
VERTEX
  8
DRD
 10
1.4060
 20
1.4330
 30
 0.0
  0
SEQEND
  8
DRD
  0
POLYLINE
  8
DRD
 66
      1
 70
1
 40
0.0050
 41
0.0050
  0
VERTEX
  8
DRD
 10
1.4285
 20
1.4580
 30
 0.0
 42
1.0
  0
VERTEX
  8
DRD
 10
1.4335
 20
1.4580
 30
 0.0
 42
1.0
  0
SEQEND
  8
DRD
  0
POLYLINE
  8
DRD
 66
      1
 70
1
 40
0.0050
 41
0.0050
  0
VERTEX
  8
DRD
 10
1.4035
 20
1.4330
 30
 0.0
 42
1.0
  0
VERTEX
  8
DRD
 10
1.4085
 20
1.4330
 30
 0.0
 42
1.0
  0
SEQEND
  8
DRD
  0
POLYLINE
  8
DRD
 66
      1
 70
0
 40
0.0100
 41
0.0100
  0
VERTEX
  8
DRD
 10
1.4060
 20
1.4830
 30
 0.0
  0
VERTEX
  8
DRD
 10
1.4310
 20
1.4580
 30
 0.0
  0
SEQEND
  8
DRD
  0
POLYLINE
  8
DRD
 66
      1
 70
1
 40
0.0050
 41
0.0050
  0
VERTEX
  8
DRD
 10
1.4035
 20
1.4830
 30
 0.0
 42
1.0
  0
VERTEX
  8
DRD
 10
1.4085
 20
1.4830
 30
 0.0
 42
1.0
  0
SEQEND
  8
DRD
  0
POLYLINE
  8
DRD
 66
      1
 70
1
 40
0.0050
 41
0.0050
  0
VERTEX
  8
DRD
 10
1.4285
 20
1.4580
 30
 0.0
 42
1.0
  0
VERTEX
  8
DRD
 10
1.4335
 20
1.4580
 30
 0.0
 42
1.0
  0
SEQEND
  8
DRD
  0
POLYLINE
  8
DRD
 66
      1
 70
0
 40
0.0100
 41
0.0100
  0
VERTEX
  8
DRD
 10
1.3810
 20
1.4580
 30
 0.0
  0
VERTEX
  8
DRD
 10
1.4060
 20
1.4830
 30
 0.0
  0
SEQEND
  8
DRD
  0
POLYLINE
  8
DRD
 66
      1
 70
1
 40
0.0050
 41
0.0050
  0
VERTEX
  8
DRD
 10
1.3785
 20
1.4580
 30
 0.0
 42
1.0
  0
VERTEX
  8
DRD
 10
1.3835
 20
1.4580
 30
 0.0
 42
1.0
  0
SEQEND
  8
DRD
  0
POLYLINE
  8
DRD
 66
      1
 70
1
 40
0.0050
 41
0.0050
  0
VERTEX
  8
DRD
 10
1.4035
 20
1.4830
 30
 0.0
 42
1.0
  0
VERTEX
  8
DRD
 10
1.4085
 20
1.4830
 30
 0.0
 42
1.0
  0
SEQEND
  8
DRD
  0
POLYLINE
  8
DRD
 66
      1
 70
0
 40
0.0100
 41
0.0100
  0
VERTEX
  8
DRD
 10
1.8810
 20
0.7750
 30
 0.0
  0
VERTEX
  8
DRD
 10
1.8560
 20
0.8000
 30
 0.0
  0
SEQEND
  8
DRD
  0
POLYLINE
  8
DRD
 66
      1
 70
1
 40
0.0050
 41
0.0050
  0
VERTEX
  8
DRD
 10
1.8785
 20
0.7750
 30
 0.0
 42
1.0
  0
VERTEX
  8
DRD
 10
1.8835
 20
0.7750
 30
 0.0
 42
1.0
  0
SEQEND
  8
DRD
  0
POLYLINE
  8
DRD
 66
      1
 70
1
 40
0.0050
 41
0.0050
  0
VERTEX
  8
DRD
 10
1.8535
 20
0.8000
 30
 0.0
 42
1.0
  0
VERTEX
  8
DRD
 10
1.8585
 20
0.8000
 30
 0.0
 42
1.0
  0
SEQEND
  8
DRD
  0
POLYLINE
  8
DRD
 66
      1
 70
0
 40
0.0100
 41
0.0100
  0
VERTEX
  8
DRD
 10
1.9060
 20
0.8000
 30
 0.0
  0
VERTEX
  8
DRD
 10
1.8810
 20
0.7750
 30
 0.0
  0
SEQEND
  8
DRD
  0
POLYLINE
  8
DRD
 66
      1
 70
1
 40
0.0050
 41
0.0050
  0
VERTEX
  8
DRD
 10
1.9035
 20
0.8000
 30
 0.0
 42
1.0
  0
VERTEX
  8
DRD
 10
1.9085
 20
0.8000
 30
 0.0
 42
1.0
  0
SEQEND
  8
DRD
  0
POLYLINE
  8
DRD
 66
      1
 70
1
 40
0.0050
 41
0.0050
  0
VERTEX
  8
DRD
 10
1.8785
 20
0.7750
 30
 0.0
 42
1.0
  0
VERTEX
  8
DRD
 10
1.8835
 20
0.7750
 30
 0.0
 42
1.0
  0
SEQEND
  8
DRD
  0
POLYLINE
  8
DRD
 66
      1
 70
0
 40
0.0100
 41
0.0100
  0
VERTEX
  8
DRD
 10
1.8810
 20
0.8250
 30
 0.0
  0
VERTEX
  8
DRD
 10
1.9060
 20
0.8000
 30
 0.0
  0
SEQEND
  8
DRD
  0
POLYLINE
  8
DRD
 66
      1
 70
1
 40
0.0050
 41
0.0050
  0
VERTEX
  8
DRD
 10
1.8785
 20
0.8250
 30
 0.0
 42
1.0
  0
VERTEX
  8
DRD
 10
1.8835
 20
0.8250
 30
 0.0
 42
1.0
  0
SEQEND
  8
DRD
  0
POLYLINE
  8
DRD
 66
      1
 70
1
 40
0.0050
 41
0.0050
  0
VERTEX
  8
DRD
 10
1.9035
 20
0.8000
 30
 0.0
 42
1.0
  0
VERTEX
  8
DRD
 10
1.9085
 20
0.8000
 30
 0.0
 42
1.0
  0
SEQEND
  8
DRD
  0
POLYLINE
  8
DRD
 66
      1
 70
0
 40
0.0100
 41
0.0100
  0
VERTEX
  8
DRD
 10
1.8560
 20
0.8000
 30
 0.0
  0
VERTEX
  8
DRD
 10
1.8810
 20
0.8250
 30
 0.0
  0
SEQEND
  8
DRD
  0
POLYLINE
  8
DRD
 66
      1
 70
1
 40
0.0050
 41
0.0050
  0
VERTEX
  8
DRD
 10
1.8535
 20
0.8000
 30
 0.0
 42
1.0
  0
VERTEX
  8
DRD
 10
1.8585
 20
0.8000
 30
 0.0
 42
1.0
  0
SEQEND
  8
DRD
  0
POLYLINE
  8
DRD
 66
      1
 70
1
 40
0.0050
 41
0.0050
  0
VERTEX
  8
DRD
 10
1.8785
 20
0.8250
 30
 0.0
 42
1.0
  0
VERTEX
  8
DRD
 10
1.8835
 20
0.8250
 30
 0.0
 42
1.0
  0
SEQEND
  8
DRD
  0
POLYLINE
  8
DRD
 66
      1
 70
0
 40
0.0100
 41
0.0100
  0
VERTEX
  8
DRD
 10
1.8810
 20
0.6750
 30
 0.0
  0
VERTEX
  8
DRD
 10
1.8560
 20
0.7000
 30
 0.0
  0
SEQEND
  8
DRD
  0
POLYLINE
  8
DRD
 66
      1
 70
1
 40
0.0050
 41
0.0050
  0
VERTEX
  8
DRD
 10
1.8785
 20
0.6750
 30
 0.0
 42
1.0
  0
VERTEX
  8
DRD
 10
1.8835
 20
0.6750
 30
 0.0
 42
1.0
  0
SEQEND
  8
DRD
  0
POLYLINE
  8
DRD
 66
      1
 70
1
 40
0.0050
 41
0.0050
  0
VERTEX
  8
DRD
 10
1.8535
 20
0.7000
 30
 0.0
 42
1.0
  0
VERTEX
  8
DRD
 10
1.8585
 20
0.7000
 30
 0.0
 42
1.0
  0
SEQEND
  8
DRD
  0
POLYLINE
  8
DRD
 66
      1
 70
0
 40
0.0100
 41
0.0100
  0
VERTEX
  8
DRD
 10
1.9060
 20
0.7000
 30
 0.0
  0
VERTEX
  8
DRD
 10
1.8810
 20
0.6750
 30
 0.0
  0
SEQEND
  8
DRD
  0
POLYLINE
  8
DRD
 66
      1
 70
1
 40
0.0050
 41
0.0050
  0
VERTEX
  8
DRD
 10
1.9035
 20
0.7000
 30
 0.0
 42
1.0
  0
VERTEX
  8
DRD
 10
1.9085
 20
0.7000
 30
 0.0
 42
1.0
  0
SEQEND
  8
DRD
  0
POLYLINE
  8
DRD
 66
      1
 70
1
 40
0.0050
 41
0.0050
  0
VERTEX
  8
DRD
 10
1.8785
 20
0.6750
 30
 0.0
 42
1.0
  0
VERTEX
  8
DRD
 10
1.8835
 20
0.6750
 30
 0.0
 42
1.0
  0
SEQEND
  8
DRD
  0
POLYLINE
  8
DRD
 66
      1
 70
0
 40
0.0100
 41
0.0100
  0
VERTEX
  8
DRD
 10
1.8810
 20
0.7250
 30
 0.0
  0
VERTEX
  8
DRD
 10
1.9060
 20
0.7000
 30
 0.0
  0
SEQEND
  8
DRD
  0
POLYLINE
  8
DRD
 66
      1
 70
1
 40
0.0050
 41
0.0050
  0
VERTEX
  8
DRD
 10
1.8785
 20
0.7250
 30
 0.0
 42
1.0
  0
VERTEX
  8
DRD
 10
1.8835
 20
0.7250
 30
 0.0
 42
1.0
  0
SEQEND
  8
DRD
  0
POLYLINE
  8
DRD
 66
      1
 70
1
 40
0.0050
 41
0.0050
  0
VERTEX
  8
DRD
 10
1.9035
 20
0.7000
 30
 0.0
 42
1.0
  0
VERTEX
  8
DRD
 10
1.9085
 20
0.7000
 30
 0.0
 42
1.0
  0
SEQEND
  8
DRD
  0
POLYLINE
  8
DRD
 66
      1
 70
0
 40
0.0100
 41
0.0100
  0
VERTEX
  8
DRD
 10
1.8560
 20
0.7000
 30
 0.0
  0
VERTEX
  8
DRD
 10
1.8810
 20
0.7250
 30
 0.0
  0
SEQEND
  8
DRD
  0
POLYLINE
  8
DRD
 66
      1
 70
1
 40
0.0050
 41
0.0050
  0
VERTEX
  8
DRD
 10
1.8535
 20
0.7000
 30
 0.0
 42
1.0
  0
VERTEX
  8
DRD
 10
1.8585
 20
0.7000
 30
 0.0
 42
1.0
  0
SEQEND
  8
DRD
  0
POLYLINE
  8
DRD
 66
      1
 70
1
 40
0.0050
 41
0.0050
  0
VERTEX
  8
DRD
 10
1.8785
 20
0.7250
 30
 0.0
 42
1.0
  0
VERTEX
  8
DRD
 10
1.8835
 20
0.7250
 30
 0.0
 42
1.0
  0
SEQEND
  8
DRD
  0
POLYLINE
  8
DRD
 66
      1
 70
0
 40
0.0100
 41
0.0100
  0
VERTEX
  8
DRD
 10
1.5540
 20
0.7050
 30
 0.0
  0
VERTEX
  8
DRD
 10
1.5290
 20
0.7300
 30
 0.0
  0
SEQEND
  8
DRD
  0
POLYLINE
  8
DRD
 66
      1
 70
1
 40
0.0050
 41
0.0050
  0
VERTEX
  8
DRD
 10
1.5515
 20
0.7050
 30
 0.0
 42
1.0
  0
VERTEX
  8
DRD
 10
1.5565
 20
0.7050
 30
 0.0
 42
1.0
  0
SEQEND
  8
DRD
  0
POLYLINE
  8
DRD
 66
      1
 70
1
 40
0.0050
 41
0.0050
  0
VERTEX
  8
DRD
 10
1.5265
 20
0.7300
 30
 0.0
 42
1.0
  0
VERTEX
  8
DRD
 10
1.5315
 20
0.7300
 30
 0.0
 42
1.0
  0
SEQEND
  8
DRD
  0
POLYLINE
  8
DRD
 66
      1
 70
0
 40
0.0100
 41
0.0100
  0
VERTEX
  8
DRD
 10
1.5790
 20
0.7300
 30
 0.0
  0
VERTEX
  8
DRD
 10
1.5540
 20
0.7050
 30
 0.0
  0
SEQEND
  8
DRD
  0
POLYLINE
  8
DRD
 66
      1
 70
1
 40
0.0050
 41
0.0050
  0
VERTEX
  8
DRD
 10
1.5765
 20
0.7300
 30
 0.0
 42
1.0
  0
VERTEX
  8
DRD
 10
1.5815
 20
0.7300
 30
 0.0
 42
1.0
  0
SEQEND
  8
DRD
  0
POLYLINE
  8
DRD
 66
      1
 70
1
 40
0.0050
 41
0.0050
  0
VERTEX
  8
DRD
 10
1.5515
 20
0.7050
 30
 0.0
 42
1.0
  0
VERTEX
  8
DRD
 10
1.5565
 20
0.7050
 30
 0.0
 42
1.0
  0
SEQEND
  8
DRD
  0
POLYLINE
  8
DRD
 66
      1
 70
0
 40
0.0100
 41
0.0100
  0
VERTEX
  8
DRD
 10
1.5540
 20
0.7550
 30
 0.0
  0
VERTEX
  8
DRD
 10
1.5790
 20
0.7300
 30
 0.0
  0
SEQEND
  8
DRD
  0
POLYLINE
  8
DRD
 66
      1
 70
1
 40
0.0050
 41
0.0050
  0
VERTEX
  8
DRD
 10
1.5515
 20
0.7550
 30
 0.0
 42
1.0
  0
VERTEX
  8
DRD
 10
1.5565
 20
0.7550
 30
 0.0
 42
1.0
  0
SEQEND
  8
DRD
  0
POLYLINE
  8
DRD
 66
      1
 70
1
 40
0.0050
 41
0.0050
  0
VERTEX
  8
DRD
 10
1.5765
 20
0.7300
 30
 0.0
 42
1.0
  0
VERTEX
  8
DRD
 10
1.5815
 20
0.7300
 30
 0.0
 42
1.0
  0
SEQEND
  8
DRD
  0
POLYLINE
  8
DRD
 66
      1
 70
0
 40
0.0100
 41
0.0100
  0
VERTEX
  8
DRD
 10
1.5290
 20
0.7300
 30
 0.0
  0
VERTEX
  8
DRD
 10
1.5540
 20
0.7550
 30
 0.0
  0
SEQEND
  8
DRD
  0
POLYLINE
  8
DRD
 66
      1
 70
1
 40
0.0050
 41
0.0050
  0
VERTEX
  8
DRD
 10
1.5265
 20
0.7300
 30
 0.0
 42
1.0
  0
VERTEX
  8
DRD
 10
1.5315
 20
0.7300
 30
 0.0
 42
1.0
  0
SEQEND
  8
DRD
  0
POLYLINE
  8
DRD
 66
      1
 70
1
 40
0.0050
 41
0.0050
  0
VERTEX
  8
DRD
 10
1.5515
 20
0.7550
 30
 0.0
 42
1.0
  0
VERTEX
  8
DRD
 10
1.5565
 20
0.7550
 30
 0.0
 42
1.0
  0
SEQEND
  8
DRD
  0
POLYLINE
  8
DRD
 66
      1
 70
0
 40
0.0100
 41
0.0100
  0
VERTEX
  8
DRD
 10
1.5080
 20
0.7050
 30
 0.0
  0
VERTEX
  8
DRD
 10
1.4830
 20
0.7300
 30
 0.0
  0
SEQEND
  8
DRD
  0
POLYLINE
  8
DRD
 66
      1
 70
1
 40
0.0050
 41
0.0050
  0
VERTEX
  8
DRD
 10
1.5055
 20
0.7050
 30
 0.0
 42
1.0
  0
VERTEX
  8
DRD
 10
1.5105
 20
0.7050
 30
 0.0
 42
1.0
  0
SEQEND
  8
DRD
  0
POLYLINE
  8
DRD
 66
      1
 70
1
 40
0.0050
 41
0.0050
  0
VERTEX
  8
DRD
 10
1.4805
 20
0.7300
 30
 0.0
 42
1.0
  0
VERTEX
  8
DRD
 10
1.4855
 20
0.7300
 30
 0.0
 42
1.0
  0
SEQEND
  8
DRD
  0
POLYLINE
  8
DRD
 66
      1
 70
0
 40
0.0100
 41
0.0100
  0
VERTEX
  8
DRD
 10
1.5330
 20
0.7300
 30
 0.0
  0
VERTEX
  8
DRD
 10
1.5080
 20
0.7050
 30
 0.0
  0
SEQEND
  8
DRD
  0
POLYLINE
  8
DRD
 66
      1
 70
1
 40
0.0050
 41
0.0050
  0
VERTEX
  8
DRD
 10
1.5305
 20
0.7300
 30
 0.0
 42
1.0
  0
VERTEX
  8
DRD
 10
1.5355
 20
0.7300
 30
 0.0
 42
1.0
  0
SEQEND
  8
DRD
  0
POLYLINE
  8
DRD
 66
      1
 70
1
 40
0.0050
 41
0.0050
  0
VERTEX
  8
DRD
 10
1.5055
 20
0.7050
 30
 0.0
 42
1.0
  0
VERTEX
  8
DRD
 10
1.5105
 20
0.7050
 30
 0.0
 42
1.0
  0
SEQEND
  8
DRD
  0
POLYLINE
  8
DRD
 66
      1
 70
0
 40
0.0100
 41
0.0100
  0
VERTEX
  8
DRD
 10
1.5080
 20
0.7550
 30
 0.0
  0
VERTEX
  8
DRD
 10
1.5330
 20
0.7300
 30
 0.0
  0
SEQEND
  8
DRD
  0
POLYLINE
  8
DRD
 66
      1
 70
1
 40
0.0050
 41
0.0050
  0
VERTEX
  8
DRD
 10
1.5055
 20
0.7550
 30
 0.0
 42
1.0
  0
VERTEX
  8
DRD
 10
1.5105
 20
0.7550
 30
 0.0
 42
1.0
  0
SEQEND
  8
DRD
  0
POLYLINE
  8
DRD
 66
      1
 70
1
 40
0.0050
 41
0.0050
  0
VERTEX
  8
DRD
 10
1.5305
 20
0.7300
 30
 0.0
 42
1.0
  0
VERTEX
  8
DRD
 10
1.5355
 20
0.7300
 30
 0.0
 42
1.0
  0
SEQEND
  8
DRD
  0
POLYLINE
  8
DRD
 66
      1
 70
0
 40
0.0100
 41
0.0100
  0
VERTEX
  8
DRD
 10
1.4830
 20
0.7300
 30
 0.0
  0
VERTEX
  8
DRD
 10
1.5080
 20
0.7550
 30
 0.0
  0
SEQEND
  8
DRD
  0
POLYLINE
  8
DRD
 66
      1
 70
1
 40
0.0050
 41
0.0050
  0
VERTEX
  8
DRD
 10
1.4805
 20
0.7300
 30
 0.0
 42
1.0
  0
VERTEX
  8
DRD
 10
1.4855
 20
0.7300
 30
 0.0
 42
1.0
  0
SEQEND
  8
DRD
  0
POLYLINE
  8
DRD
 66
      1
 70
1
 40
0.0050
 41
0.0050
  0
VERTEX
  8
DRD
 10
1.5055
 20
0.7550
 30
 0.0
 42
1.0
  0
VERTEX
  8
DRD
 10
1.5105
 20
0.7550
 30
 0.0
 42
1.0
  0
SEQEND
  8
DRD
  0
POLYLINE
  8
DRD
 66
      1
 70
0
 40
0.0100
 41
0.0100
  0
VERTEX
  8
DRD
 10
1.4320
 20
1.3980
 30
 0.0
  0
VERTEX
  8
DRD
 10
1.4070
 20
1.4230
 30
 0.0
  0
SEQEND
  8
DRD
  0
POLYLINE
  8
DRD
 66
      1
 70
1
 40
0.0050
 41
0.0050
  0
VERTEX
  8
DRD
 10
1.4295
 20
1.3980
 30
 0.0
 42
1.0
  0
VERTEX
  8
DRD
 10
1.4345
 20
1.3980
 30
 0.0
 42
1.0
  0
SEQEND
  8
DRD
  0
POLYLINE
  8
DRD
 66
      1
 70
1
 40
0.0050
 41
0.0050
  0
VERTEX
  8
DRD
 10
1.4045
 20
1.4230
 30
 0.0
 42
1.0
  0
VERTEX
  8
DRD
 10
1.4095
 20
1.4230
 30
 0.0
 42
1.0
  0
SEQEND
  8
DRD
  0
POLYLINE
  8
DRD
 66
      1
 70
0
 40
0.0100
 41
0.0100
  0
VERTEX
  8
DRD
 10
1.4570
 20
1.4230
 30
 0.0
  0
VERTEX
  8
DRD
 10
1.4320
 20
1.3980
 30
 0.0
  0
SEQEND
  8
DRD
  0
POLYLINE
  8
DRD
 66
      1
 70
1
 40
0.0050
 41
0.0050
  0
VERTEX
  8
DRD
 10
1.4545
 20
1.4230
 30
 0.0
 42
1.0
  0
VERTEX
  8
DRD
 10
1.4595
 20
1.4230
 30
 0.0
 42
1.0
  0
SEQEND
  8
DRD
  0
POLYLINE
  8
DRD
 66
      1
 70
1
 40
0.0050
 41
0.0050
  0
VERTEX
  8
DRD
 10
1.4295
 20
1.3980
 30
 0.0
 42
1.0
  0
VERTEX
  8
DRD
 10
1.4345
 20
1.3980
 30
 0.0
 42
1.0
  0
SEQEND
  8
DRD
  0
POLYLINE
  8
DRD
 66
      1
 70
0
 40
0.0100
 41
0.0100
  0
VERTEX
  8
DRD
 10
1.4320
 20
1.4480
 30
 0.0
  0
VERTEX
  8
DRD
 10
1.4570
 20
1.4230
 30
 0.0
  0
SEQEND
  8
DRD
  0
POLYLINE
  8
DRD
 66
      1
 70
1
 40
0.0050
 41
0.0050
  0
VERTEX
  8
DRD
 10
1.4295
 20
1.4480
 30
 0.0
 42
1.0
  0
VERTEX
  8
DRD
 10
1.4345
 20
1.4480
 30
 0.0
 42
1.0
  0
SEQEND
  8
DRD
  0
POLYLINE
  8
DRD
 66
      1
 70
1
 40
0.0050
 41
0.0050
  0
VERTEX
  8
DRD
 10
1.4545
 20
1.4230
 30
 0.0
 42
1.0
  0
VERTEX
  8
DRD
 10
1.4595
 20
1.4230
 30
 0.0
 42
1.0
  0
SEQEND
  8
DRD
  0
POLYLINE
  8
DRD
 66
      1
 70
0
 40
0.0100
 41
0.0100
  0
VERTEX
  8
DRD
 10
1.4070
 20
1.4230
 30
 0.0
  0
VERTEX
  8
DRD
 10
1.4320
 20
1.4480
 30
 0.0
  0
SEQEND
  8
DRD
  0
POLYLINE
  8
DRD
 66
      1
 70
1
 40
0.0050
 41
0.0050
  0
VERTEX
  8
DRD
 10
1.4045
 20
1.4230
 30
 0.0
 42
1.0
  0
VERTEX
  8
DRD
 10
1.4095
 20
1.4230
 30
 0.0
 42
1.0
  0
SEQEND
  8
DRD
  0
POLYLINE
  8
DRD
 66
      1
 70
1
 40
0.0050
 41
0.0050
  0
VERTEX
  8
DRD
 10
1.4295
 20
1.4480
 30
 0.0
 42
1.0
  0
VERTEX
  8
DRD
 10
1.4345
 20
1.4480
 30
 0.0
 42
1.0
  0
SEQEND
  8
DRD
  0
POLYLINE
  8
DRD
 66
      1
 70
0
 40
0.0100
 41
0.0100
  0
VERTEX
  8
DRD
 10
1.4320
 20
1.1620
 30
 0.0
  0
VERTEX
  8
DRD
 10
1.4070
 20
1.1870
 30
 0.0
  0
SEQEND
  8
DRD
  0
POLYLINE
  8
DRD
 66
      1
 70
1
 40
0.0050
 41
0.0050
  0
VERTEX
  8
DRD
 10
1.4295
 20
1.1620
 30
 0.0
 42
1.0
  0
VERTEX
  8
DRD
 10
1.4345
 20
1.1620
 30
 0.0
 42
1.0
  0
SEQEND
  8
DRD
  0
POLYLINE
  8
DRD
 66
      1
 70
1
 40
0.0050
 41
0.0050
  0
VERTEX
  8
DRD
 10
1.4045
 20
1.1870
 30
 0.0
 42
1.0
  0
VERTEX
  8
DRD
 10
1.4095
 20
1.1870
 30
 0.0
 42
1.0
  0
SEQEND
  8
DRD
  0
POLYLINE
  8
DRD
 66
      1
 70
0
 40
0.0100
 41
0.0100
  0
VERTEX
  8
DRD
 10
1.4570
 20
1.1870
 30
 0.0
  0
VERTEX
  8
DRD
 10
1.4320
 20
1.1620
 30
 0.0
  0
SEQEND
  8
DRD
  0
POLYLINE
  8
DRD
 66
      1
 70
1
 40
0.0050
 41
0.0050
  0
VERTEX
  8
DRD
 10
1.4545
 20
1.1870
 30
 0.0
 42
1.0
  0
VERTEX
  8
DRD
 10
1.4595
 20
1.1870
 30
 0.0
 42
1.0
  0
SEQEND
  8
DRD
  0
POLYLINE
  8
DRD
 66
      1
 70
1
 40
0.0050
 41
0.0050
  0
VERTEX
  8
DRD
 10
1.4295
 20
1.1620
 30
 0.0
 42
1.0
  0
VERTEX
  8
DRD
 10
1.4345
 20
1.1620
 30
 0.0
 42
1.0
  0
SEQEND
  8
DRD
  0
POLYLINE
  8
DRD
 66
      1
 70
0
 40
0.0100
 41
0.0100
  0
VERTEX
  8
DRD
 10
1.4320
 20
1.2120
 30
 0.0
  0
VERTEX
  8
DRD
 10
1.4570
 20
1.1870
 30
 0.0
  0
SEQEND
  8
DRD
  0
POLYLINE
  8
DRD
 66
      1
 70
1
 40
0.0050
 41
0.0050
  0
VERTEX
  8
DRD
 10
1.4295
 20
1.2120
 30
 0.0
 42
1.0
  0
VERTEX
  8
DRD
 10
1.4345
 20
1.2120
 30
 0.0
 42
1.0
  0
SEQEND
  8
DRD
  0
POLYLINE
  8
DRD
 66
      1
 70
1
 40
0.0050
 41
0.0050
  0
VERTEX
  8
DRD
 10
1.4545
 20
1.1870
 30
 0.0
 42
1.0
  0
VERTEX
  8
DRD
 10
1.4595
 20
1.1870
 30
 0.0
 42
1.0
  0
SEQEND
  8
DRD
  0
POLYLINE
  8
DRD
 66
      1
 70
0
 40
0.0100
 41
0.0100
  0
VERTEX
  8
DRD
 10
1.4070
 20
1.1870
 30
 0.0
  0
VERTEX
  8
DRD
 10
1.4320
 20
1.2120
 30
 0.0
  0
SEQEND
  8
DRD
  0
POLYLINE
  8
DRD
 66
      1
 70
1
 40
0.0050
 41
0.0050
  0
VERTEX
  8
DRD
 10
1.4045
 20
1.1870
 30
 0.0
 42
1.0
  0
VERTEX
  8
DRD
 10
1.4095
 20
1.1870
 30
 0.0
 42
1.0
  0
SEQEND
  8
DRD
  0
POLYLINE
  8
DRD
 66
      1
 70
1
 40
0.0050
 41
0.0050
  0
VERTEX
  8
DRD
 10
1.4295
 20
1.2120
 30
 0.0
 42
1.0
  0
VERTEX
  8
DRD
 10
1.4345
 20
1.2120
 30
 0.0
 42
1.0
  0
SEQEND
  8
DRD
  0
POLYLINE
  8
SST
 66
      1
 70
0
 40
0.0060
 41
0.0060
  0
VERTEX
  8
SST
 10
1.8140
 20
1.0890
 30
 0.0
  0
VERTEX
  8
SST
 10
1.7880
 20
1.0890
 30
 0.0
  0
VERTEX
  8
SST
 10
1.7880
 20
1.1190
 30
 0.0
  0
SEQEND
  8
SST
  0
POLYLINE
  8
SST
 66
      1
 70
1
 40
0.0030
 41
0.0030
  0
VERTEX
  8
SST
 10
1.8125
 20
1.0890
 30
 0.0
 42
1.0
  0
VERTEX
  8
SST
 10
1.8155
 20
1.0890
 30
 0.0
 42
1.0
  0
SEQEND
  8
SST
  0
POLYLINE
  8
SST
 66
      1
 70
1
 40
0.0030
 41
0.0030
  0
VERTEX
  8
SST
 10
1.7865
 20
1.0890
 30
 0.0
 42
1.0
  0
VERTEX
  8
SST
 10
1.7895
 20
1.0890
 30
 0.0
 42
1.0
  0
SEQEND
  8
SST
  0
POLYLINE
  8
SST
 66
      1
 70
1
 40
0.0030
 41
0.0030
  0
VERTEX
  8
SST
 10
1.7865
 20
1.1190
 30
 0.0
 42
1.0
  0
VERTEX
  8
SST
 10
1.7895
 20
1.1190
 30
 0.0
 42
1.0
  0
SEQEND
  8
SST
  0
POLYLINE
  8
SST
 66
      1
 70
0
 40
0.0060
 41
0.0060
  0
VERTEX
  8
SST
 10
1.9130
 20
1.1190
 30
 0.0
  0
VERTEX
  8
SST
 10
1.9080
 20
1.1190
 30
 0.0
  0
VERTEX
  8
SST
 10
1.9080
 20
1.0890
 30
 0.0
  0
VERTEX
  8
SST
 10
1.8820
 20
1.0890
 30
 0.0
  0
SEQEND
  8
SST
  0
POLYLINE
  8
SST
 66
      1
 70
1
 40
0.0030
 41
0.0030
  0
VERTEX
  8
SST
 10
1.9115
 20
1.1190
 30
 0.0
 42
1.0
  0
VERTEX
  8
SST
 10
1.9145
 20
1.1190
 30
 0.0
 42
1.0
  0
SEQEND
  8
SST
  0
POLYLINE
  8
SST
 66
      1
 70
1
 40
0.0030
 41
0.0030
  0
VERTEX
  8
SST
 10
1.9065
 20
1.1190
 30
 0.0
 42
1.0
  0
VERTEX
  8
SST
 10
1.9095
 20
1.1190
 30
 0.0
 42
1.0
  0
SEQEND
  8
SST
  0
POLYLINE
  8
SST
 66
      1
 70
1
 40
0.0030
 41
0.0030
  0
VERTEX
  8
SST
 10
1.9065
 20
1.0890
 30
 0.0
 42
1.0
  0
VERTEX
  8
SST
 10
1.9095
 20
1.0890
 30
 0.0
 42
1.0
  0
SEQEND
  8
SST
  0
POLYLINE
  8
SST
 66
      1
 70
1
 40
0.0030
 41
0.0030
  0
VERTEX
  8
SST
 10
1.8805
 20
1.0890
 30
 0.0
 42
1.0
  0
VERTEX
  8
SST
 10
1.8835
 20
1.0890
 30
 0.0
 42
1.0
  0
SEQEND
  8
SST
  0
POLYLINE
  8
SST
 66
      1
 70
0
 40
0.0080
 41
0.0080
  0
VERTEX
  8
SST
 10
2.8540
 20
0.5390
 30
 0.0
 42
0.9999999999999999
  0
VERTEX
  8
SST
 10
2.5470
 20
0.5390
 30
 0.0
  0
SEQEND
  8
SST
  0
POLYLINE
  8
SST
 66
      1
 70
1
 40
0.0040
 41
0.0040
  0
VERTEX
  8
SST
 10
2.8520
 20
0.5390
 30
 0.0
 42
1.0
  0
VERTEX
  8
SST
 10
2.8560
 20
0.5390
 30
 0.0
 42
1.0
  0
SEQEND
  8
SST
  0
POLYLINE
  8
SST
 66
      1
 70
1
 40
0.0040
 41
0.0040
  0
VERTEX
  8
SST
 10
2.5450
 20
0.5390
 30
 0.0
 42
1.0
  0
VERTEX
  8
SST
 10
2.5490
 20
0.5390
 30
 0.0
 42
1.0
  0
SEQEND
  8
SST
  0
POLYLINE
  8
SST
 66
      1
 70
0
 40
0.0080
 41
0.0080
  0
VERTEX
  8
SST
 10
2.5470
 20
0.5390
 30
 0.0
 42
0.9999999999999999
  0
VERTEX
  8
SST
 10
2.8540
 20
0.5390
 30
 0.0
  0
SEQEND
  8
SST
  0
POLYLINE
  8
SST
 66
      1
 70
1
 40
0.0040
 41
0.0040
  0
VERTEX
  8
SST
 10
2.5450
 20
0.5390
 30
 0.0
 42
1.0
  0
VERTEX
  8
SST
 10
2.5490
 20
0.5390
 30
 0.0
 42
1.0
  0
SEQEND
  8
SST
  0
POLYLINE
  8
SST
 66
      1
 70
1
 40
0.0040
 41
0.0040
  0
VERTEX
  8
SST
 10
2.8520
 20
0.5390
 30
 0.0
 42
1.0
  0
VERTEX
  8
SST
 10
2.8560
 20
0.5390
 30
 0.0
 42
1.0
  0
SEQEND
  8
SST
  0
POLYLINE
  8
SST
 66
      1
 70
1
 40
0.0060
 41
0.0060
  0
VERTEX
  8
SST
 10
1.3870
 20
1.0170
 30
 0.0
  0
VERTEX
  8
SST
 10
1.3270
 20
1.0170
 30
 0.0
  0
VERTEX
  8
SST
 10
1.3270
 20
1.0670
 30
 0.0
  0
VERTEX
  8
SST
 10
1.3870
 20
1.0670
 30
 0.0
  0
VERTEX
  8
SST
 10
1.3870
 20
1.0170
 30
 0.0
  0
SEQEND
  8
SST
  0
POLYLINE
  8
SST
 66
      1
 70
1
 40
0.0030
 41
0.0030
  0
VERTEX
  8
SST
 10
1.3855
 20
1.0170
 30
 0.0
 42
1.0
  0
VERTEX
  8
SST
 10
1.3885
 20
1.0170
 30
 0.0
 42
1.0
  0
SEQEND
  8
SST
  0
POLYLINE
  8
SST
 66
      1
 70
1
 40
0.0030
 41
0.0030
  0
VERTEX
  8
SST
 10
1.3255
 20
1.0170
 30
 0.0
 42
1.0
  0
VERTEX
  8
SST
 10
1.3285
 20
1.0170
 30
 0.0
 42
1.0
  0
SEQEND
  8
SST
  0
POLYLINE
  8
SST
 66
      1
 70
1
 40
0.0030
 41
0.0030
  0
VERTEX
  8
SST
 10
1.3255
 20
1.0670
 30
 0.0
 42
1.0
  0
VERTEX
  8
SST
 10
1.3285
 20
1.0670
 30
 0.0
 42
1.0
  0
SEQEND
  8
SST
  0
POLYLINE
  8
SST
 66
      1
 70
1
 40
0.0030
 41
0.0030
  0
VERTEX
  8
SST
 10
1.3855
 20
1.0670
 30
 0.0
 42
1.0
  0
VERTEX
  8
SST
 10
1.3885
 20
1.0670
 30
 0.0
 42
1.0
  0
SEQEND
  8
SST
  0
POLYLINE
  8
SST
 66
      1
 70
1
 40
0.0030
 41
0.0030
  0
VERTEX
  8
SST
 10
1.3855
 20
1.0170
 30
 0.0
 42
1.0
  0
VERTEX
  8
SST
 10
1.3885
 20
1.0170
 30
 0.0
 42
1.0
  0
SEQEND
  8
SST
  0
POLYLINE
  8
SST
 66
      1
 70
1
 40
0.0060
 41
0.0060
  0
VERTEX
  8
SST
 10
1.9340
 20
1.1580
 30
 0.0
  0
VERTEX
  8
SST
 10
1.9690
 20
1.1580
 30
 0.0
  0
VERTEX
  8
SST
 10
1.9690
 20
1.1680
 30
 0.0
  0
VERTEX
  8
SST
 10
1.9340
 20
1.1680
 30
 0.0
  0
VERTEX
  8
SST
 10
1.9340
 20
1.1580
 30
 0.0
  0
SEQEND
  8
SST
  0
POLYLINE
  8
SST
 66
      1
 70
1
 40
0.0030
 41
0.0030
  0
VERTEX
  8
SST
 10
1.9325
 20
1.1580
 30
 0.0
 42
1.0
  0
VERTEX
  8
SST
 10
1.9355
 20
1.1580
 30
 0.0
 42
1.0
  0
SEQEND
  8
SST
  0
POLYLINE
  8
SST
 66
      1
 70
1
 40
0.0030
 41
0.0030
  0
VERTEX
  8
SST
 10
1.9675
 20
1.1580
 30
 0.0
 42
1.0
  0
VERTEX
  8
SST
 10
1.9705
 20
1.1580
 30
 0.0
 42
1.0
  0
SEQEND
  8
SST
  0
POLYLINE
  8
SST
 66
      1
 70
1
 40
0.0030
 41
0.0030
  0
VERTEX
  8
SST
 10
1.9675
 20
1.1680
 30
 0.0
 42
1.0
  0
VERTEX
  8
SST
 10
1.9705
 20
1.1680
 30
 0.0
 42
1.0
  0
SEQEND
  8
SST
  0
POLYLINE
  8
SST
 66
      1
 70
1
 40
0.0030
 41
0.0030
  0
VERTEX
  8
SST
 10
1.9325
 20
1.1680
 30
 0.0
 42
1.0
  0
VERTEX
  8
SST
 10
1.9355
 20
1.1680
 30
 0.0
 42
1.0
  0
SEQEND
  8
SST
  0
POLYLINE
  8
SST
 66
      1
 70
1
 40
0.0030
 41
0.0030
  0
VERTEX
  8
SST
 10
1.9325
 20
1.1580
 30
 0.0
 42
1.0
  0
VERTEX
  8
SST
 10
1.9355
 20
1.1580
 30
 0.0
 42
1.0
  0
SEQEND
  8
SST
  0
POLYLINE
  8
SST
 66
      1
 70
1
 40
0.0060
 41
0.0060
  0
VERTEX
  8
SST
 10
1.9260
 20
1.1150
 30
 0.0
  0
VERTEX
  8
SST
 10
1.9760
 20
1.1150
 30
 0.0
  0
VERTEX
  8
SST
 10
1.9760
 20
1.2100
 30
 0.0
  0
VERTEX
  8
SST
 10
1.9260
 20
1.2100
 30
 0.0
  0
VERTEX
  8
SST
 10
1.9260
 20
1.1150
 30
 0.0
  0
SEQEND
  8
SST
  0
POLYLINE
  8
SST
 66
      1
 70
1
 40
0.0030
 41
0.0030
  0
VERTEX
  8
SST
 10
1.9245
 20
1.1150
 30
 0.0
 42
1.0
  0
VERTEX
  8
SST
 10
1.9275
 20
1.1150
 30
 0.0
 42
1.0
  0
SEQEND
  8
SST
  0
POLYLINE
  8
SST
 66
      1
 70
1
 40
0.0030
 41
0.0030
  0
VERTEX
  8
SST
 10
1.9745
 20
1.1150
 30
 0.0
 42
1.0
  0
VERTEX
  8
SST
 10
1.9775
 20
1.1150
 30
 0.0
 42
1.0
  0
SEQEND
  8
SST
  0
POLYLINE
  8
SST
 66
      1
 70
1
 40
0.0030
 41
0.0030
  0
VERTEX
  8
SST
 10
1.9745
 20
1.2100
 30
 0.0
 42
1.0
  0
VERTEX
  8
SST
 10
1.9775
 20
1.2100
 30
 0.0
 42
1.0
  0
SEQEND
  8
SST
  0
POLYLINE
  8
SST
 66
      1
 70
1
 40
0.0030
 41
0.0030
  0
VERTEX
  8
SST
 10
1.9245
 20
1.2100
 30
 0.0
 42
1.0
  0
VERTEX
  8
SST
 10
1.9275
 20
1.2100
 30
 0.0
 42
1.0
  0
SEQEND
  8
SST
  0
POLYLINE
  8
SST
 66
      1
 70
1
 40
0.0030
 41
0.0030
  0
VERTEX
  8
SST
 10
1.9245
 20
1.1150
 30
 0.0
 42
1.0
  0
VERTEX
  8
SST
 10
1.9275
 20
1.1150
 30
 0.0
 42
1.0
  0
SEQEND
  8
SST
  0
POLYLINE
  8
SST
 66
      1
 70
1
 40
0.0060
 41
0.0060
  0
VERTEX
  8
SST
 10
2.6220
 20
1.2740
 30
 0.0
  0
VERTEX
  8
SST
 10
2.5620
 20
1.2740
 30
 0.0
  0
VERTEX
  8
SST
 10
2.5620
 20
1.3240
 30
 0.0
  0
VERTEX
  8
SST
 10
2.6220
 20
1.3240
 30
 0.0
  0
VERTEX
  8
SST
 10
2.6220
 20
1.2740
 30
 0.0
  0
SEQEND
  8
SST
  0
POLYLINE
  8
SST
 66
      1
 70
1
 40
0.0030
 41
0.0030
  0
VERTEX
  8
SST
 10
2.6205
 20
1.2740
 30
 0.0
 42
1.0
  0
VERTEX
  8
SST
 10
2.6235
 20
1.2740
 30
 0.0
 42
1.0
  0
SEQEND
  8
SST
  0
POLYLINE
  8
SST
 66
      1
 70
1
 40
0.0030
 41
0.0030
  0
VERTEX
  8
SST
 10
2.5605
 20
1.2740
 30
 0.0
 42
1.0
  0
VERTEX
  8
SST
 10
2.5635
 20
1.2740
 30
 0.0
 42
1.0
  0
SEQEND
  8
SST
  0
POLYLINE
  8
SST
 66
      1
 70
1
 40
0.0030
 41
0.0030
  0
VERTEX
  8
SST
 10
2.5605
 20
1.3240
 30
 0.0
 42
1.0
  0
VERTEX
  8
SST
 10
2.5635
 20
1.3240
 30
 0.0
 42
1.0
  0
SEQEND
  8
SST
  0
POLYLINE
  8
SST
 66
      1
 70
1
 40
0.0030
 41
0.0030
  0
VERTEX
  8
SST
 10
2.6205
 20
1.3240
 30
 0.0
 42
1.0
  0
VERTEX
  8
SST
 10
2.6235
 20
1.3240
 30
 0.0
 42
1.0
  0
SEQEND
  8
SST
  0
POLYLINE
  8
SST
 66
      1
 70
1
 40
0.0030
 41
0.0030
  0
VERTEX
  8
SST
 10
2.6205
 20
1.2740
 30
 0.0
 42
1.0
  0
VERTEX
  8
SST
 10
2.6235
 20
1.2740
 30
 0.0
 42
1.0
  0
SEQEND
  8
SST
  0
POLYLINE
  8
SST
 66
      1
 70
1
 40
0.0060
 41
0.0060
  0
VERTEX
  8
SST
 10
2.4170
 20
0.8090
 30
 0.0
  0
VERTEX
  8
SST
 10
2.4170
 20
0.9040
 30
 0.0
  0
VERTEX
  8
SST
 10
2.4670
 20
0.9040
 30
 0.0
  0
VERTEX
  8
SST
 10
2.4670
 20
0.8090
 30
 0.0
  0
VERTEX
  8
SST
 10
2.4170
 20
0.8090
 30
 0.0
  0
SEQEND
  8
SST
  0
POLYLINE
  8
SST
 66
      1
 70
1
 40
0.0030
 41
0.0030
  0
VERTEX
  8
SST
 10
2.4155
 20
0.8090
 30
 0.0
 42
1.0
  0
VERTEX
  8
SST
 10
2.4185
 20
0.8090
 30
 0.0
 42
1.0
  0
SEQEND
  8
SST
  0
POLYLINE
  8
SST
 66
      1
 70
1
 40
0.0030
 41
0.0030
  0
VERTEX
  8
SST
 10
2.4155
 20
0.9040
 30
 0.0
 42
1.0
  0
VERTEX
  8
SST
 10
2.4185
 20
0.9040
 30
 0.0
 42
1.0
  0
SEQEND
  8
SST
  0
POLYLINE
  8
SST
 66
      1
 70
1
 40
0.0030
 41
0.0030
  0
VERTEX
  8
SST
 10
2.4655
 20
0.9040
 30
 0.0
 42
1.0
  0
VERTEX
  8
SST
 10
2.4685
 20
0.9040
 30
 0.0
 42
1.0
  0
SEQEND
  8
SST
  0
POLYLINE
  8
SST
 66
      1
 70
1
 40
0.0030
 41
0.0030
  0
VERTEX
  8
SST
 10
2.4655
 20
0.8090
 30
 0.0
 42
1.0
  0
VERTEX
  8
SST
 10
2.4685
 20
0.8090
 30
 0.0
 42
1.0
  0
SEQEND
  8
SST
  0
POLYLINE
  8
SST
 66
      1
 70
1
 40
0.0030
 41
0.0030
  0
VERTEX
  8
SST
 10
2.4155
 20
0.8090
 30
 0.0
 42
1.0
  0
VERTEX
  8
SST
 10
2.4185
 20
0.8090
 30
 0.0
 42
1.0
  0
SEQEND
  8
SST
  0
POLYLINE
  8
SST
 66
      1
 70
1
 40
0.0060
 41
0.0060
  0
VERTEX
  8
SST
 10
2.4250
 20
0.8520
 30
 0.0
  0
VERTEX
  8
SST
 10
2.4600
 20
0.8520
 30
 0.0
  0
VERTEX
  8
SST
 10
2.4600
 20
0.8620
 30
 0.0
  0
VERTEX
  8
SST
 10
2.4250
 20
0.8620
 30
 0.0
  0
VERTEX
  8
SST
 10
2.4250
 20
0.8520
 30
 0.0
  0
SEQEND
  8
SST
  0
POLYLINE
  8
SST
 66
      1
 70
1
 40
0.0030
 41
0.0030
  0
VERTEX
  8
SST
 10
2.4235
 20
0.8520
 30
 0.0
 42
1.0
  0
VERTEX
  8
SST
 10
2.4265
 20
0.8520
 30
 0.0
 42
1.0
  0
SEQEND
  8
SST
  0
POLYLINE
  8
SST
 66
      1
 70
1
 40
0.0030
 41
0.0030
  0
VERTEX
  8
SST
 10
2.4585
 20
0.8520
 30
 0.0
 42
1.0
  0
VERTEX
  8
SST
 10
2.4615
 20
0.8520
 30
 0.0
 42
1.0
  0
SEQEND
  8
SST
  0
POLYLINE
  8
SST
 66
      1
 70
1
 40
0.0030
 41
0.0030
  0
VERTEX
  8
SST
 10
2.4585
 20
0.8620
 30
 0.0
 42
1.0
  0
VERTEX
  8
SST
 10
2.4615
 20
0.8620
 30
 0.0
 42
1.0
  0
SEQEND
  8
SST
  0
POLYLINE
  8
SST
 66
      1
 70
1
 40
0.0030
 41
0.0030
  0
VERTEX
  8
SST
 10
2.4235
 20
0.8620
 30
 0.0
 42
1.0
  0
VERTEX
  8
SST
 10
2.4265
 20
0.8620
 30
 0.0
 42
1.0
  0
SEQEND
  8
SST
  0
POLYLINE
  8
SST
 66
      1
 70
1
 40
0.0030
 41
0.0030
  0
VERTEX
  8
SST
 10
2.4235
 20
0.8520
 30
 0.0
 42
1.0
  0
VERTEX
  8
SST
 10
2.4265
 20
0.8520
 30
 0.0
 42
1.0
  0
SEQEND
  8
SST
  0
POLYLINE
  8
SST
 66
      1
 70
1
 40
0.0080
 41
0.0080
  0
VERTEX
  8
SST
 10
2.2590
 20
0.7880
 30
 0.0
  0
VERTEX
  8
SST
 10
2.2590
 20
0.8280
 30
 0.0
  0
VERTEX
  8
SST
 10
2.2190
 20
0.8280
 30
 0.0
  0
VERTEX
  8
SST
 10
2.2190
 20
0.7880
 30
 0.0
  0
VERTEX
  8
SST
 10
2.2590
 20
0.7880
 30
 0.0
  0
SEQEND
  8
SST
  0
POLYLINE
  8
SST
 66
      1
 70
1
 40
0.0040
 41
0.0040
  0
VERTEX
  8
SST
 10
2.2570
 20
0.7880
 30
 0.0
 42
1.0
  0
VERTEX
  8
SST
 10
2.2610
 20
0.7880
 30
 0.0
 42
1.0
  0
SEQEND
  8
SST
  0
POLYLINE
  8
SST
 66
      1
 70
1
 40
0.0040
 41
0.0040
  0
VERTEX
  8
SST
 10
2.2570
 20
0.8280
 30
 0.0
 42
1.0
  0
VERTEX
  8
SST
 10
2.2610
 20
0.8280
 30
 0.0
 42
1.0
  0
SEQEND
  8
SST
  0
POLYLINE
  8
SST
 66
      1
 70
1
 40
0.0040
 41
0.0040
  0
VERTEX
  8
SST
 10
2.2170
 20
0.8280
 30
 0.0
 42
1.0
  0
VERTEX
  8
SST
 10
2.2210
 20
0.8280
 30
 0.0
 42
1.0
  0
SEQEND
  8
SST
  0
POLYLINE
  8
SST
 66
      1
 70
1
 40
0.0040
 41
0.0040
  0
VERTEX
  8
SST
 10
2.2170
 20
0.7880
 30
 0.0
 42
1.0
  0
VERTEX
  8
SST
 10
2.2210
 20
0.7880
 30
 0.0
 42
1.0
  0
SEQEND
  8
SST
  0
POLYLINE
  8
SST
 66
      1
 70
1
 40
0.0040
 41
0.0040
  0
VERTEX
  8
SST
 10
2.2570
 20
0.7880
 30
 0.0
 42
1.0
  0
VERTEX
  8
SST
 10
2.2610
 20
0.7880
 30
 0.0
 42
1.0
  0
SEQEND
  8
SST
  0
POLYLINE
  8
SST
 66
      1
 70
1
 40
0.0080
 41
0.0080
  0
VERTEX
  8
SST
 10
2.0930
 20
0.7790
 30
 0.0
  0
VERTEX
  8
SST
 10
2.0930
 20
0.9040
 30
 0.0
  0
VERTEX
  8
SST
 10
2.2680
 20
0.9040
 30
 0.0
  0
VERTEX
  8
SST
 10
2.2680
 20
0.7790
 30
 0.0
  0
VERTEX
  8
SST
 10
2.0930
 20
0.7790
 30
 0.0
  0
SEQEND
  8
SST
  0
POLYLINE
  8
SST
 66
      1
 70
1
 40
0.0040
 41
0.0040
  0
VERTEX
  8
SST
 10
2.0910
 20
0.7790
 30
 0.0
 42
1.0
  0
VERTEX
  8
SST
 10
2.0950
 20
0.7790
 30
 0.0
 42
1.0
  0
SEQEND
  8
SST
  0
POLYLINE
  8
SST
 66
      1
 70
1
 40
0.0040
 41
0.0040
  0
VERTEX
  8
SST
 10
2.0910
 20
0.9040
 30
 0.0
 42
1.0
  0
VERTEX
  8
SST
 10
2.0950
 20
0.9040
 30
 0.0
 42
1.0
  0
SEQEND
  8
SST
  0
POLYLINE
  8
SST
 66
      1
 70
1
 40
0.0040
 41
0.0040
  0
VERTEX
  8
SST
 10
2.2660
 20
0.9040
 30
 0.0
 42
1.0
  0
VERTEX
  8
SST
 10
2.2700
 20
0.9040
 30
 0.0
 42
1.0
  0
SEQEND
  8
SST
  0
POLYLINE
  8
SST
 66
      1
 70
1
 40
0.0040
 41
0.0040
  0
VERTEX
  8
SST
 10
2.2660
 20
0.7790
 30
 0.0
 42
1.0
  0
VERTEX
  8
SST
 10
2.2700
 20
0.7790
 30
 0.0
 42
1.0
  0
SEQEND
  8
SST
  0
POLYLINE
  8
SST
 66
      1
 70
1
 40
0.0040
 41
0.0040
  0
VERTEX
  8
SST
 10
2.0910
 20
0.7790
 30
 0.0
 42
1.0
  0
VERTEX
  8
SST
 10
2.0950
 20
0.7790
 30
 0.0
 42
1.0
  0
SEQEND
  8
SST
  0
POLYLINE
  8
SST
 66
      1
 70
0
 40
0.0060
 41
0.0060
  0
VERTEX
  8
SST
 10
0.9200
 20
1.0380
 30
 0.0
  0
VERTEX
  8
SST
 10
1.1750
 20
1.0380
 30
 0.0
  0
SEQEND
  8
SST
  0
POLYLINE
  8
SST
 66
      1
 70
1
 40
0.0030
 41
0.0030
  0
VERTEX
  8
SST
 10
0.9185
 20
1.0380
 30
 0.0
 42
1.0
  0
VERTEX
  8
SST
 10
0.9215
 20
1.0380
 30
 0.0
 42
1.0
  0
SEQEND
  8
SST
  0
POLYLINE
  8
SST
 66
      1
 70
1
 40
0.0030
 41
0.0030
  0
VERTEX
  8
SST
 10
1.1735
 20
1.0380
 30
 0.0
 42
1.0
  0
VERTEX
  8
SST
 10
1.1765
 20
1.0380
 30
 0.0
 42
1.0
  0
SEQEND
  8
SST
  0
POLYLINE
  8
SST
 66
      1
 70
1
 40
0.0060
 41
0.0060
  0
VERTEX
  8
SST
 10
1.1750
 20
0.8960
 30
 0.0
  0
VERTEX
  8
SST
 10
0.9200
 20
0.8960
 30
 0.0
  0
VERTEX
  8
SST
 10
1.0470
 20
1.0230
 30
 0.0
  0
VERTEX
  8
SST
 10
1.1750
 20
0.8960
 30
 0.0
  0
SEQEND
  8
SST
  0
POLYLINE
  8
SST
 66
      1
 70
1
 40
0.0030
 41
0.0030
  0
VERTEX
  8
SST
 10
1.1735
 20
0.8960
 30
 0.0
 42
1.0
  0
VERTEX
  8
SST
 10
1.1765
 20
0.8960
 30
 0.0
 42
1.0
  0
SEQEND
  8
SST
  0
POLYLINE
  8
SST
 66
      1
 70
1
 40
0.0030
 41
0.0030
  0
VERTEX
  8
SST
 10
0.9185
 20
0.8960
 30
 0.0
 42
1.0
  0
VERTEX
  8
SST
 10
0.9215
 20
0.8960
 30
 0.0
 42
1.0
  0
SEQEND
  8
SST
  0
POLYLINE
  8
SST
 66
      1
 70
1
 40
0.0030
 41
0.0030
  0
VERTEX
  8
SST
 10
1.0455
 20
1.0230
 30
 0.0
 42
1.0
  0
VERTEX
  8
SST
 10
1.0485
 20
1.0230
 30
 0.0
 42
1.0
  0
SEQEND
  8
SST
  0
POLYLINE
  8
SST
 66
      1
 70
1
 40
0.0030
 41
0.0030
  0
VERTEX
  8
SST
 10
1.1735
 20
0.8960
 30
 0.0
 42
1.0
  0
VERTEX
  8
SST
 10
1.1765
 20
0.8960
 30
 0.0
 42
1.0
  0
SEQEND
  8
SST
  0
POLYLINE
  8
0
 66
      1
 70
1
 40
0.0080
 41
0.0080
  0
VERTEX
  8
0
 10
0.5740
 20
1.8340
 30
 0.0
  0
VERTEX
  8
0
 10
0.5740
 20
0.3840
 30
 0.0
  0
VERTEX
  8
0
 10
2.8540
 20
0.3840
 30
 0.0
  0
VERTEX
  8
0
 10
2.8540
 20
1.8340
 30
 0.0
  0
VERTEX
  8
0
 10
0.5740
 20
1.8340
 30
 0.0
  0
SEQEND
  8
0
  0
POLYLINE
  8
0
 66
      1
 70
1
 40
0.0040
 41
0.0040
  0
VERTEX
  8
0
 10
0.5720
 20
1.8340
 30
 0.0
 42
1.0
  0
VERTEX
  8
0
 10
0.5760
 20
1.8340
 30
 0.0
 42
1.0
  0
SEQEND
  8
0
  0
POLYLINE
  8
0
 66
      1
 70
1
 40
0.0040
 41
0.0040
  0
VERTEX
  8
0
 10
0.5720
 20
0.3840
 30
 0.0
 42
1.0
  0
VERTEX
  8
0
 10
0.5760
 20
0.3840
 30
 0.0
 42
1.0
  0
SEQEND
  8
0
  0
POLYLINE
  8
0
 66
      1
 70
1
 40
0.0040
 41
0.0040
  0
VERTEX
  8
0
 10
2.8520
 20
0.3840
 30
 0.0
 42
1.0
  0
VERTEX
  8
0
 10
2.8560
 20
0.3840
 30
 0.0
 42
1.0
  0
SEQEND
  8
0
  0
POLYLINE
  8
0
 66
      1
 70
1
 40
0.0040
 41
0.0040
  0
VERTEX
  8
0
 10
2.8520
 20
1.8340
 30
 0.0
 42
1.0
  0
VERTEX
  8
0
 10
2.8560
 20
1.8340
 30
 0.0
 42
1.0
  0
SEQEND
  8
0
  0
POLYLINE
  8
0
 66
      1
 70
1
 40
0.0040
 41
0.0040
  0
VERTEX
  8
0
 10
0.5720
 20
1.8340
 30
 0.0
 42
1.0
  0
VERTEX
  8
0
 10
0.5760
 20
1.8340
 30
 0.0
 42
1.0
  0
SEQEND
  8
0
  0
POLYLINE
  8
SST
 66
      1
 70
1
 40
0.0060
 41
0.0060
  0
VERTEX
  8
SST
 10
1.5620
 20
0.5910
 30
 0.0
  0
VERTEX
  8
SST
 10
1.5020
 20
0.5910
 30
 0.0
  0
VERTEX
  8
SST
 10
1.5020
 20
0.6410
 30
 0.0
  0
VERTEX
  8
SST
 10
1.5620
 20
0.6410
 30
 0.0
  0
VERTEX
  8
SST
 10
1.5620
 20
0.5910
 30
 0.0
  0
SEQEND
  8
SST
  0
POLYLINE
  8
SST
 66
      1
 70
1
 40
0.0030
 41
0.0030
  0
VERTEX
  8
SST
 10
1.5605
 20
0.5910
 30
 0.0
 42
1.0
  0
VERTEX
  8
SST
 10
1.5635
 20
0.5910
 30
 0.0
 42
1.0
  0
SEQEND
  8
SST
  0
POLYLINE
  8
SST
 66
      1
 70
1
 40
0.0030
 41
0.0030
  0
VERTEX
  8
SST
 10
1.5005
 20
0.5910
 30
 0.0
 42
1.0
  0
VERTEX
  8
SST
 10
1.5035
 20
0.5910
 30
 0.0
 42
1.0
  0
SEQEND
  8
SST
  0
POLYLINE
  8
SST
 66
      1
 70
1
 40
0.0030
 41
0.0030
  0
VERTEX
  8
SST
 10
1.5005
 20
0.6410
 30
 0.0
 42
1.0
  0
VERTEX
  8
SST
 10
1.5035
 20
0.6410
 30
 0.0
 42
1.0
  0
SEQEND
  8
SST
  0
POLYLINE
  8
SST
 66
      1
 70
1
 40
0.0030
 41
0.0030
  0
VERTEX
  8
SST
 10
1.5605
 20
0.6410
 30
 0.0
 42
1.0
  0
VERTEX
  8
SST
 10
1.5635
 20
0.6410
 30
 0.0
 42
1.0
  0
SEQEND
  8
SST
  0
POLYLINE
  8
SST
 66
      1
 70
1
 40
0.0030
 41
0.0030
  0
VERTEX
  8
SST
 10
1.5605
 20
0.5910
 30
 0.0
 42
1.0
  0
VERTEX
  8
SST
 10
1.5635
 20
0.5910
 30
 0.0
 42
1.0
  0
SEQEND
  8
SST
  0
POLYLINE
  8
SST
 66
      1
 70
1
 40
0.0060
 41
0.0060
  0
VERTEX
  8
SST
 10
0.9240
 20
1.2700
 30
 0.0
  0
VERTEX
  8
SST
 10
0.9840
 20
1.2700
 30
 0.0
  0
VERTEX
  8
SST
 10
0.9840
 20
1.2200
 30
 0.0
  0
VERTEX
  8
SST
 10
0.9240
 20
1.2200
 30
 0.0
  0
VERTEX
  8
SST
 10
0.9240
 20
1.2700
 30
 0.0
  0
SEQEND
  8
SST
  0
POLYLINE
  8
SST
 66
      1
 70
1
 40
0.0030
 41
0.0030
  0
VERTEX
  8
SST
 10
0.9225
 20
1.2700
 30
 0.0
 42
1.0
  0
VERTEX
  8
SST
 10
0.9255
 20
1.2700
 30
 0.0
 42
1.0
  0
SEQEND
  8
SST
  0
POLYLINE
  8
SST
 66
      1
 70
1
 40
0.0030
 41
0.0030
  0
VERTEX
  8
SST
 10
0.9825
 20
1.2700
 30
 0.0
 42
1.0
  0
VERTEX
  8
SST
 10
0.9855
 20
1.2700
 30
 0.0
 42
1.0
  0
SEQEND
  8
SST
  0
POLYLINE
  8
SST
 66
      1
 70
1
 40
0.0030
 41
0.0030
  0
VERTEX
  8
SST
 10
0.9825
 20
1.2200
 30
 0.0
 42
1.0
  0
VERTEX
  8
SST
 10
0.9855
 20
1.2200
 30
 0.0
 42
1.0
  0
SEQEND
  8
SST
  0
POLYLINE
  8
SST
 66
      1
 70
1
 40
0.0030
 41
0.0030
  0
VERTEX
  8
SST
 10
0.9225
 20
1.2200
 30
 0.0
 42
1.0
  0
VERTEX
  8
SST
 10
0.9255
 20
1.2200
 30
 0.0
 42
1.0
  0
SEQEND
  8
SST
  0
POLYLINE
  8
SST
 66
      1
 70
1
 40
0.0030
 41
0.0030
  0
VERTEX
  8
SST
 10
0.9225
 20
1.2700
 30
 0.0
 42
1.0
  0
VERTEX
  8
SST
 10
0.9255
 20
1.2700
 30
 0.0
 42
1.0
  0
SEQEND
  8
SST
  0
POLYLINE
  8
SST
 66
      1
 70
1
 40
0.0060
 41
0.0060
  0
VERTEX
  8
SST
 10
1.9750
 20
1.3140
 30
 0.0
  0
VERTEX
  8
SST
 10
1.9750
 20
1.2190
 30
 0.0
  0
VERTEX
  8
SST
 10
1.9250
 20
1.2190
 30
 0.0
  0
VERTEX
  8
SST
 10
1.9250
 20
1.3140
 30
 0.0
  0
VERTEX
  8
SST
 10
1.9750
 20
1.3140
 30
 0.0
  0
SEQEND
  8
SST
  0
POLYLINE
  8
SST
 66
      1
 70
1
 40
0.0030
 41
0.0030
  0
VERTEX
  8
SST
 10
1.9735
 20
1.3140
 30
 0.0
 42
1.0
  0
VERTEX
  8
SST
 10
1.9765
 20
1.3140
 30
 0.0
 42
1.0
  0
SEQEND
  8
SST
  0
POLYLINE
  8
SST
 66
      1
 70
1
 40
0.0030
 41
0.0030
  0
VERTEX
  8
SST
 10
1.9735
 20
1.2190
 30
 0.0
 42
1.0
  0
VERTEX
  8
SST
 10
1.9765
 20
1.2190
 30
 0.0
 42
1.0
  0
SEQEND
  8
SST
  0
POLYLINE
  8
SST
 66
      1
 70
1
 40
0.0030
 41
0.0030
  0
VERTEX
  8
SST
 10
1.9235
 20
1.2190
 30
 0.0
 42
1.0
  0
VERTEX
  8
SST
 10
1.9265
 20
1.2190
 30
 0.0
 42
1.0
  0
SEQEND
  8
SST
  0
POLYLINE
  8
SST
 66
      1
 70
1
 40
0.0030
 41
0.0030
  0
VERTEX
  8
SST
 10
1.9235
 20
1.3140
 30
 0.0
 42
1.0
  0
VERTEX
  8
SST
 10
1.9265
 20
1.3140
 30
 0.0
 42
1.0
  0
SEQEND
  8
SST
  0
POLYLINE
  8
SST
 66
      1
 70
1
 40
0.0030
 41
0.0030
  0
VERTEX
  8
SST
 10
1.9735
 20
1.3140
 30
 0.0
 42
1.0
  0
VERTEX
  8
SST
 10
1.9765
 20
1.3140
 30
 0.0
 42
1.0
  0
SEQEND
  8
SST
  0
POLYLINE
  8
SST
 66
      1
 70
1
 40
0.0060
 41
0.0060
  0
VERTEX
  8
SST
 10
1.9680
 20
1.2720
 30
 0.0
  0
VERTEX
  8
SST
 10
1.9330
 20
1.2720
 30
 0.0
  0
VERTEX
  8
SST
 10
1.9330
 20
1.2620
 30
 0.0
  0
VERTEX
  8
SST
 10
1.9680
 20
1.2620
 30
 0.0
  0
VERTEX
  8
SST
 10
1.9680
 20
1.2720
 30
 0.0
  0
SEQEND
  8
SST
  0
POLYLINE
  8
SST
 66
      1
 70
1
 40
0.0030
 41
0.0030
  0
VERTEX
  8
SST
 10
1.9665
 20
1.2720
 30
 0.0
 42
1.0
  0
VERTEX
  8
SST
 10
1.9695
 20
1.2720
 30
 0.0
 42
1.0
  0
SEQEND
  8
SST
  0
POLYLINE
  8
SST
 66
      1
 70
1
 40
0.0030
 41
0.0030
  0
VERTEX
  8
SST
 10
1.9315
 20
1.2720
 30
 0.0
 42
1.0
  0
VERTEX
  8
SST
 10
1.9345
 20
1.2720
 30
 0.0
 42
1.0
  0
SEQEND
  8
SST
  0
POLYLINE
  8
SST
 66
      1
 70
1
 40
0.0030
 41
0.0030
  0
VERTEX
  8
SST
 10
1.9315
 20
1.2620
 30
 0.0
 42
1.0
  0
VERTEX
  8
SST
 10
1.9345
 20
1.2620
 30
 0.0
 42
1.0
  0
SEQEND
  8
SST
  0
POLYLINE
  8
SST
 66
      1
 70
1
 40
0.0030
 41
0.0030
  0
VERTEX
  8
SST
 10
1.9665
 20
1.2620
 30
 0.0
 42
1.0
  0
VERTEX
  8
SST
 10
1.9695
 20
1.2620
 30
 0.0
 42
1.0
  0
SEQEND
  8
SST
  0
POLYLINE
  8
SST
 66
      1
 70
1
 40
0.0030
 41
0.0030
  0
VERTEX
  8
SST
 10
1.9665
 20
1.2720
 30
 0.0
 42
1.0
  0
VERTEX
  8
SST
 10
1.9695
 20
1.2720
 30
 0.0
 42
1.0
  0
SEQEND
  8
SST
  0
POLYLINE
  8
SST
 66
      1
 70
1
 40
0.0080
 41
0.0080
  0
VERTEX
  8
SST
 10
2.0250
 20
0.4840
 30
 0.0
  0
VERTEX
  8
SST
 10
2.4650
 20
0.4840
 30
 0.0
  0
VERTEX
  8
SST
 10
2.4650
 20
0.7640
 30
 0.0
  0
VERTEX
  8
SST
 10
2.0250
 20
0.7640
 30
 0.0
  0
VERTEX
  8
SST
 10
2.0250
 20
0.4840
 30
 0.0
  0
SEQEND
  8
SST
  0
POLYLINE
  8
SST
 66
      1
 70
1
 40
0.0040
 41
0.0040
  0
VERTEX
  8
SST
 10
2.0230
 20
0.4840
 30
 0.0
 42
1.0
  0
VERTEX
  8
SST
 10
2.0270
 20
0.4840
 30
 0.0
 42
1.0
  0
SEQEND
  8
SST
  0
POLYLINE
  8
SST
 66
      1
 70
1
 40
0.0040
 41
0.0040
  0
VERTEX
  8
SST
 10
2.4630
 20
0.4840
 30
 0.0
 42
1.0
  0
VERTEX
  8
SST
 10
2.4670
 20
0.4840
 30
 0.0
 42
1.0
  0
SEQEND
  8
SST
  0
POLYLINE
  8
SST
 66
      1
 70
1
 40
0.0040
 41
0.0040
  0
VERTEX
  8
SST
 10
2.4630
 20
0.7640
 30
 0.0
 42
1.0
  0
VERTEX
  8
SST
 10
2.4670
 20
0.7640
 30
 0.0
 42
1.0
  0
SEQEND
  8
SST
  0
POLYLINE
  8
SST
 66
      1
 70
1
 40
0.0040
 41
0.0040
  0
VERTEX
  8
SST
 10
2.0230
 20
0.7640
 30
 0.0
 42
1.0
  0
VERTEX
  8
SST
 10
2.0270
 20
0.7640
 30
 0.0
 42
1.0
  0
SEQEND
  8
SST
  0
POLYLINE
  8
SST
 66
      1
 70
1
 40
0.0040
 41
0.0040
  0
VERTEX
  8
SST
 10
2.0230
 20
0.4840
 30
 0.0
 42
1.0
  0
VERTEX
  8
SST
 10
2.0270
 20
0.4840
 30
 0.0
 42
1.0
  0
SEQEND
  8
SST
  0
POLYLINE
  8
SST
 66
      1
 70
0
 40
0.0080
 41
0.0080
  0
VERTEX
  8
SST
 10
0.8820
 20
0.5390
 30
 0.0
 42
0.9999999999999999
  0
VERTEX
  8
SST
 10
0.5750
 20
0.5390
 30
 0.0
  0
SEQEND
  8
SST
  0
POLYLINE
  8
SST
 66
      1
 70
1
 40
0.0040
 41
0.0040
  0
VERTEX
  8
SST
 10
0.8800
 20
0.5390
 30
 0.0
 42
1.0
  0
VERTEX
  8
SST
 10
0.8840
 20
0.5390
 30
 0.0
 42
1.0
  0
SEQEND
  8
SST
  0
POLYLINE
  8
SST
 66
      1
 70
1
 40
0.0040
 41
0.0040
  0
VERTEX
  8
SST
 10
0.5730
 20
0.5390
 30
 0.0
 42
1.0
  0
VERTEX
  8
SST
 10
0.5770
 20
0.5390
 30
 0.0
 42
1.0
  0
SEQEND
  8
SST
  0
POLYLINE
  8
SST
 66
      1
 70
0
 40
0.0080
 41
0.0080
  0
VERTEX
  8
SST
 10
0.5750
 20
0.5390
 30
 0.0
 42
0.9999999999999999
  0
VERTEX
  8
SST
 10
0.8820
 20
0.5390
 30
 0.0
  0
SEQEND
  8
SST
  0
POLYLINE
  8
SST
 66
      1
 70
1
 40
0.0040
 41
0.0040
  0
VERTEX
  8
SST
 10
0.5730
 20
0.5390
 30
 0.0
 42
1.0
  0
VERTEX
  8
SST
 10
0.5770
 20
0.5390
 30
 0.0
 42
1.0
  0
SEQEND
  8
SST
  0
POLYLINE
  8
SST
 66
      1
 70
1
 40
0.0040
 41
0.0040
  0
VERTEX
  8
SST
 10
0.8800
 20
0.5390
 30
 0.0
 42
1.0
  0
VERTEX
  8
SST
 10
0.8840
 20
0.5390
 30
 0.0
 42
1.0
  0
SEQEND
  8
SST
  0
POLYLINE
  8
SST
 66
      1
 70
0
 40
0.0080
 41
0.0080
  0
VERTEX
  8
SST
 10
2.8540
 20
1.6810
 30
 0.0
 42
0.9999999999999999
  0
VERTEX
  8
SST
 10
2.5470
 20
1.6810
 30
 0.0
  0
SEQEND
  8
SST
  0
POLYLINE
  8
SST
 66
      1
 70
1
 40
0.0040
 41
0.0040
  0
VERTEX
  8
SST
 10
2.8520
 20
1.6810
 30
 0.0
 42
1.0
  0
VERTEX
  8
SST
 10
2.8560
 20
1.6810
 30
 0.0
 42
1.0
  0
SEQEND
  8
SST
  0
POLYLINE
  8
SST
 66
      1
 70
1
 40
0.0040
 41
0.0040
  0
VERTEX
  8
SST
 10
2.5450
 20
1.6810
 30
 0.0
 42
1.0
  0
VERTEX
  8
SST
 10
2.5490
 20
1.6810
 30
 0.0
 42
1.0
  0
SEQEND
  8
SST
  0
POLYLINE
  8
SST
 66
      1
 70
0
 40
0.0080
 41
0.0080
  0
VERTEX
  8
SST
 10
2.5470
 20
1.6810
 30
 0.0
 42
0.9999999999999999
  0
VERTEX
  8
SST
 10
2.8540
 20
1.6810
 30
 0.0
  0
SEQEND
  8
SST
  0
POLYLINE
  8
SST
 66
      1
 70
1
 40
0.0040
 41
0.0040
  0
VERTEX
  8
SST
 10
2.5450
 20
1.6810
 30
 0.0
 42
1.0
  0
VERTEX
  8
SST
 10
2.5490
 20
1.6810
 30
 0.0
 42
1.0
  0
SEQEND
  8
SST
  0
POLYLINE
  8
SST
 66
      1
 70
1
 40
0.0040
 41
0.0040
  0
VERTEX
  8
SST
 10
2.8520
 20
1.6810
 30
 0.0
 42
1.0
  0
VERTEX
  8
SST
 10
2.8560
 20
1.6810
 30
 0.0
 42
1.0
  0
SEQEND
  8
SST
  0
POLYLINE
  8
SST
 66
      1
 70
1
 40
0.0060
 41
0.0060
  0
VERTEX
  8
SST
 10
1.9900
 20
0.8700
 30
 0.0
  0
VERTEX
  8
SST
 10
1.9900
 20
0.7750
 30
 0.0
  0
VERTEX
  8
SST
 10
1.9400
 20
0.7750
 30
 0.0
  0
VERTEX
  8
SST
 10
1.9400
 20
0.8700
 30
 0.0
  0
VERTEX
  8
SST
 10
1.9900
 20
0.8700
 30
 0.0
  0
SEQEND
  8
SST
  0
POLYLINE
  8
SST
 66
      1
 70
1
 40
0.0030
 41
0.0030
  0
VERTEX
  8
SST
 10
1.9885
 20
0.8700
 30
 0.0
 42
1.0
  0
VERTEX
  8
SST
 10
1.9915
 20
0.8700
 30
 0.0
 42
1.0
  0
SEQEND
  8
SST
  0
POLYLINE
  8
SST
 66
      1
 70
1
 40
0.0030
 41
0.0030
  0
VERTEX
  8
SST
 10
1.9885
 20
0.7750
 30
 0.0
 42
1.0
  0
VERTEX
  8
SST
 10
1.9915
 20
0.7750
 30
 0.0
 42
1.0
  0
SEQEND
  8
SST
  0
POLYLINE
  8
SST
 66
      1
 70
1
 40
0.0030
 41
0.0030
  0
VERTEX
  8
SST
 10
1.9385
 20
0.7750
 30
 0.0
 42
1.0
  0
VERTEX
  8
SST
 10
1.9415
 20
0.7750
 30
 0.0
 42
1.0
  0
SEQEND
  8
SST
  0
POLYLINE
  8
SST
 66
      1
 70
1
 40
0.0030
 41
0.0030
  0
VERTEX
  8
SST
 10
1.9385
 20
0.8700
 30
 0.0
 42
1.0
  0
VERTEX
  8
SST
 10
1.9415
 20
0.8700
 30
 0.0
 42
1.0
  0
SEQEND
  8
SST
  0
POLYLINE
  8
SST
 66
      1
 70
1
 40
0.0030
 41
0.0030
  0
VERTEX
  8
SST
 10
1.9885
 20
0.8700
 30
 0.0
 42
1.0
  0
VERTEX
  8
SST
 10
1.9915
 20
0.8700
 30
 0.0
 42
1.0
  0
SEQEND
  8
SST
  0
POLYLINE
  8
SST
 66
      1
 70
1
 40
0.0060
 41
0.0060
  0
VERTEX
  8
SST
 10
1.9830
 20
0.8280
 30
 0.0
  0
VERTEX
  8
SST
 10
1.9480
 20
0.8280
 30
 0.0
  0
VERTEX
  8
SST
 10
1.9480
 20
0.8180
 30
 0.0
  0
VERTEX
  8
SST
 10
1.9830
 20
0.8180
 30
 0.0
  0
VERTEX
  8
SST
 10
1.9830
 20
0.8280
 30
 0.0
  0
SEQEND
  8
SST
  0
POLYLINE
  8
SST
 66
      1
 70
1
 40
0.0030
 41
0.0030
  0
VERTEX
  8
SST
 10
1.9815
 20
0.8280
 30
 0.0
 42
1.0
  0
VERTEX
  8
SST
 10
1.9845
 20
0.8280
 30
 0.0
 42
1.0
  0
SEQEND
  8
SST
  0
POLYLINE
  8
SST
 66
      1
 70
1
 40
0.0030
 41
0.0030
  0
VERTEX
  8
SST
 10
1.9465
 20
0.8280
 30
 0.0
 42
1.0
  0
VERTEX
  8
SST
 10
1.9495
 20
0.8280
 30
 0.0
 42
1.0
  0
SEQEND
  8
SST
  0
POLYLINE
  8
SST
 66
      1
 70
1
 40
0.0030
 41
0.0030
  0
VERTEX
  8
SST
 10
1.9465
 20
0.8180
 30
 0.0
 42
1.0
  0
VERTEX
  8
SST
 10
1.9495
 20
0.8180
 30
 0.0
 42
1.0
  0
SEQEND
  8
SST
  0
POLYLINE
  8
SST
 66
      1
 70
1
 40
0.0030
 41
0.0030
  0
VERTEX
  8
SST
 10
1.9815
 20
0.8180
 30
 0.0
 42
1.0
  0
VERTEX
  8
SST
 10
1.9845
 20
0.8180
 30
 0.0
 42
1.0
  0
SEQEND
  8
SST
  0
POLYLINE
  8
SST
 66
      1
 70
1
 40
0.0030
 41
0.0030
  0
VERTEX
  8
SST
 10
1.9815
 20
0.8280
 30
 0.0
 42
1.0
  0
VERTEX
  8
SST
 10
1.9845
 20
0.8280
 30
 0.0
 42
1.0
  0
SEQEND
  8
SST
  0
POLYLINE
  8
SST
 66
      1
 70
1
 40
0.0060
 41
0.0060
  0
VERTEX
  8
SST
 10
2.7930
 20
1.2740
 30
 0.0
  0
VERTEX
  8
SST
 10
2.7330
 20
1.2740
 30
 0.0
  0
VERTEX
  8
SST
 10
2.7330
 20
1.3240
 30
 0.0
  0
VERTEX
  8
SST
 10
2.7930
 20
1.3240
 30
 0.0
  0
VERTEX
  8
SST
 10
2.7930
 20
1.2740
 30
 0.0
  0
SEQEND
  8
SST
  0
POLYLINE
  8
SST
 66
      1
 70
1
 40
0.0030
 41
0.0030
  0
VERTEX
  8
SST
 10
2.7915
 20
1.2740
 30
 0.0
 42
1.0
  0
VERTEX
  8
SST
 10
2.7945
 20
1.2740
 30
 0.0
 42
1.0
  0
SEQEND
  8
SST
  0
POLYLINE
  8
SST
 66
      1
 70
1
 40
0.0030
 41
0.0030
  0
VERTEX
  8
SST
 10
2.7315
 20
1.2740
 30
 0.0
 42
1.0
  0
VERTEX
  8
SST
 10
2.7345
 20
1.2740
 30
 0.0
 42
1.0
  0
SEQEND
  8
SST
  0
POLYLINE
  8
SST
 66
      1
 70
1
 40
0.0030
 41
0.0030
  0
VERTEX
  8
SST
 10
2.7315
 20
1.3240
 30
 0.0
 42
1.0
  0
VERTEX
  8
SST
 10
2.7345
 20
1.3240
 30
 0.0
 42
1.0
  0
SEQEND
  8
SST
  0
POLYLINE
  8
SST
 66
      1
 70
1
 40
0.0030
 41
0.0030
  0
VERTEX
  8
SST
 10
2.7915
 20
1.3240
 30
 0.0
 42
1.0
  0
VERTEX
  8
SST
 10
2.7945
 20
1.3240
 30
 0.0
 42
1.0
  0
SEQEND
  8
SST
  0
POLYLINE
  8
SST
 66
      1
 70
1
 40
0.0030
 41
0.0030
  0
VERTEX
  8
SST
 10
2.7915
 20
1.2740
 30
 0.0
 42
1.0
  0
VERTEX
  8
SST
 10
2.7945
 20
1.2740
 30
 0.0
 42
1.0
  0
SEQEND
  8
SST
  0
POLYLINE
  8
SST
 66
      1
 70
0
 40
0.0080
 41
0.0080
  0
VERTEX
  8
SST
 10
0.8820
 20
1.6810
 30
 0.0
 42
0.9999999999999999
  0
VERTEX
  8
SST
 10
0.5750
 20
1.6810
 30
 0.0
  0
SEQEND
  8
SST
  0
POLYLINE
  8
SST
 66
      1
 70
1
 40
0.0040
 41
0.0040
  0
VERTEX
  8
SST
 10
0.8800
 20
1.6810
 30
 0.0
 42
1.0
  0
VERTEX
  8
SST
 10
0.8840
 20
1.6810
 30
 0.0
 42
1.0
  0
SEQEND
  8
SST
  0
POLYLINE
  8
SST
 66
      1
 70
1
 40
0.0040
 41
0.0040
  0
VERTEX
  8
SST
 10
0.5730
 20
1.6810
 30
 0.0
 42
1.0
  0
VERTEX
  8
SST
 10
0.5770
 20
1.6810
 30
 0.0
 42
1.0
  0
SEQEND
  8
SST
  0
POLYLINE
  8
SST
 66
      1
 70
0
 40
0.0080
 41
0.0080
  0
VERTEX
  8
SST
 10
0.5750
 20
1.6810
 30
 0.0
 42
0.9999999999999999
  0
VERTEX
  8
SST
 10
0.8820
 20
1.6810
 30
 0.0
  0
SEQEND
  8
SST
  0
POLYLINE
  8
SST
 66
      1
 70
1
 40
0.0040
 41
0.0040
  0
VERTEX
  8
SST
 10
0.5730
 20
1.6810
 30
 0.0
 42
1.0
  0
VERTEX
  8
SST
 10
0.5770
 20
1.6810
 30
 0.0
 42
1.0
  0
SEQEND
  8
SST
  0
POLYLINE
  8
SST
 66
      1
 70
1
 40
0.0040
 41
0.0040
  0
VERTEX
  8
SST
 10
0.8800
 20
1.6810
 30
 0.0
 42
1.0
  0
VERTEX
  8
SST
 10
0.8840
 20
1.6810
 30
 0.0
 42
1.0
  0
SEQEND
  8
SST
  0
POLYLINE
  8
SST
 66
      1
 70
1
 40
0.0100
 41
0.0100
  0
VERTEX
  8
SST
 10
0.6870
 20
1.4100
 30
 0.0
  0
VERTEX
  8
SST
 10
0.6870
 20
1.3950
 30
 0.0
  0
VERTEX
  8
SST
 10
0.8070
 20
1.3950
 30
 0.0
  0
VERTEX
  8
SST
 10
0.8070
 20
1.4100
 30
 0.0
  0
VERTEX
  8
SST
 10
0.6870
 20
1.4100
 30
 0.0
  0
SEQEND
  8
SST
  0
POLYLINE
  8
SST
 66
      1
 70
1
 40
0.0050
 41
0.0050
  0
VERTEX
  8
SST
 10
0.6845
 20
1.4100
 30
 0.0
 42
1.0
  0
VERTEX
  8
SST
 10
0.6895
 20
1.4100
 30
 0.0
 42
1.0
  0
SEQEND
  8
SST
  0
POLYLINE
  8
SST
 66
      1
 70
1
 40
0.0050
 41
0.0050
  0
VERTEX
  8
SST
 10
0.6845
 20
1.3950
 30
 0.0
 42
1.0
  0
VERTEX
  8
SST
 10
0.6895
 20
1.3950
 30
 0.0
 42
1.0
  0
SEQEND
  8
SST
  0
POLYLINE
  8
SST
 66
      1
 70
1
 40
0.0050
 41
0.0050
  0
VERTEX
  8
SST
 10
0.8045
 20
1.3950
 30
 0.0
 42
1.0
  0
VERTEX
  8
SST
 10
0.8095
 20
1.3950
 30
 0.0
 42
1.0
  0
SEQEND
  8
SST
  0
POLYLINE
  8
SST
 66
      1
 70
1
 40
0.0050
 41
0.0050
  0
VERTEX
  8
SST
 10
0.8045
 20
1.4100
 30
 0.0
 42
1.0
  0
VERTEX
  8
SST
 10
0.8095
 20
1.4100
 30
 0.0
 42
1.0
  0
SEQEND
  8
SST
  0
POLYLINE
  8
SST
 66
      1
 70
1
 40
0.0050
 41
0.0050
  0
VERTEX
  8
SST
 10
0.6845
 20
1.4100
 30
 0.0
 42
1.0
  0
VERTEX
  8
SST
 10
0.6895
 20
1.4100
 30
 0.0
 42
1.0
  0
SEQEND
  8
SST
  0
POLYLINE
  8
SST
 66
      1
 70
1
 40
0.0080
 41
0.0080
  0
VERTEX
  8
SST
 10
2.0190
 20
0.9190
 30
 0.0
  0
VERTEX
  8
SST
 10
2.4590
 20
0.9190
 30
 0.0
  0
VERTEX
  8
SST
 10
2.4590
 20
1.1990
 30
 0.0
  0
VERTEX
  8
SST
 10
2.0190
 20
1.1990
 30
 0.0
  0
VERTEX
  8
SST
 10
2.0190
 20
0.9190
 30
 0.0
  0
SEQEND
  8
SST
  0
POLYLINE
  8
SST
 66
      1
 70
1
 40
0.0040
 41
0.0040
  0
VERTEX
  8
SST
 10
2.0170
 20
0.9190
 30
 0.0
 42
1.0
  0
VERTEX
  8
SST
 10
2.0210
 20
0.9190
 30
 0.0
 42
1.0
  0
SEQEND
  8
SST
  0
POLYLINE
  8
SST
 66
      1
 70
1
 40
0.0040
 41
0.0040
  0
VERTEX
  8
SST
 10
2.4570
 20
0.9190
 30
 0.0
 42
1.0
  0
VERTEX
  8
SST
 10
2.4610
 20
0.9190
 30
 0.0
 42
1.0
  0
SEQEND
  8
SST
  0
POLYLINE
  8
SST
 66
      1
 70
1
 40
0.0040
 41
0.0040
  0
VERTEX
  8
SST
 10
2.4570
 20
1.1990
 30
 0.0
 42
1.0
  0
VERTEX
  8
SST
 10
2.4610
 20
1.1990
 30
 0.0
 42
1.0
  0
SEQEND
  8
SST
  0
POLYLINE
  8
SST
 66
      1
 70
1
 40
0.0040
 41
0.0040
  0
VERTEX
  8
SST
 10
2.0170
 20
1.1990
 30
 0.0
 42
1.0
  0
VERTEX
  8
SST
 10
2.0210
 20
1.1990
 30
 0.0
 42
1.0
  0
SEQEND
  8
SST
  0
POLYLINE
  8
SST
 66
      1
 70
1
 40
0.0040
 41
0.0040
  0
VERTEX
  8
SST
 10
2.0170
 20
0.9190
 30
 0.0
 42
1.0
  0
VERTEX
  8
SST
 10
2.0210
 20
0.9190
 30
 0.0
 42
1.0
  0
SEQEND
  8
SST
  0
POLYLINE
  8
SST
 66
      1
 70
1
 40
0.0100
 41
0.0100
  0
VERTEX
  8
SST
 10
0.6870
 20
1.1910
 30
 0.0
  0
VERTEX
  8
SST
 10
0.6870
 20
1.1760
 30
 0.0
  0
VERTEX
  8
SST
 10
0.8070
 20
1.1760
 30
 0.0
  0
VERTEX
  8
SST
 10
0.8070
 20
1.1910
 30
 0.0
  0
VERTEX
  8
SST
 10
0.6870
 20
1.1910
 30
 0.0
  0
SEQEND
  8
SST
  0
POLYLINE
  8
SST
 66
      1
 70
1
 40
0.0050
 41
0.0050
  0
VERTEX
  8
SST
 10
0.6845
 20
1.1910
 30
 0.0
 42
1.0
  0
VERTEX
  8
SST
 10
0.6895
 20
1.1910
 30
 0.0
 42
1.0
  0
SEQEND
  8
SST
  0
POLYLINE
  8
SST
 66
      1
 70
1
 40
0.0050
 41
0.0050
  0
VERTEX
  8
SST
 10
0.6845
 20
1.1760
 30
 0.0
 42
1.0
  0
VERTEX
  8
SST
 10
0.6895
 20
1.1760
 30
 0.0
 42
1.0
  0
SEQEND
  8
SST
  0
POLYLINE
  8
SST
 66
      1
 70
1
 40
0.0050
 41
0.0050
  0
VERTEX
  8
SST
 10
0.8045
 20
1.1760
 30
 0.0
 42
1.0
  0
VERTEX
  8
SST
 10
0.8095
 20
1.1760
 30
 0.0
 42
1.0
  0
SEQEND
  8
SST
  0
POLYLINE
  8
SST
 66
      1
 70
1
 40
0.0050
 41
0.0050
  0
VERTEX
  8
SST
 10
0.8045
 20
1.1910
 30
 0.0
 42
1.0
  0
VERTEX
  8
SST
 10
0.8095
 20
1.1910
 30
 0.0
 42
1.0
  0
SEQEND
  8
SST
  0
POLYLINE
  8
SST
 66
      1
 70
1
 40
0.0050
 41
0.0050
  0
VERTEX
  8
SST
 10
0.6845
 20
1.1910
 30
 0.0
 42
1.0
  0
VERTEX
  8
SST
 10
0.6895
 20
1.1910
 30
 0.0
 42
1.0
  0
SEQEND
  8
SST
  0
POLYLINE
  8
SST
 66
      1
 70
1
 40
0.0060
 41
0.0060
  0
VERTEX
  8
SST
 10
2.7080
 20
1.2740
 30
 0.0
  0
VERTEX
  8
SST
 10
2.6480
 20
1.2740
 30
 0.0
  0
VERTEX
  8
SST
 10
2.6480
 20
1.3240
 30
 0.0
  0
VERTEX
  8
SST
 10
2.7080
 20
1.3240
 30
 0.0
  0
VERTEX
  8
SST
 10
2.7080
 20
1.2740
 30
 0.0
  0
SEQEND
  8
SST
  0
POLYLINE
  8
SST
 66
      1
 70
1
 40
0.0030
 41
0.0030
  0
VERTEX
  8
SST
 10
2.7065
 20
1.2740
 30
 0.0
 42
1.0
  0
VERTEX
  8
SST
 10
2.7095
 20
1.2740
 30
 0.0
 42
1.0
  0
SEQEND
  8
SST
  0
POLYLINE
  8
SST
 66
      1
 70
1
 40
0.0030
 41
0.0030
  0
VERTEX
  8
SST
 10
2.6465
 20
1.2740
 30
 0.0
 42
1.0
  0
VERTEX
  8
SST
 10
2.6495
 20
1.2740
 30
 0.0
 42
1.0
  0
SEQEND
  8
SST
  0
POLYLINE
  8
SST
 66
      1
 70
1
 40
0.0030
 41
0.0030
  0
VERTEX
  8
SST
 10
2.6465
 20
1.3240
 30
 0.0
 42
1.0
  0
VERTEX
  8
SST
 10
2.6495
 20
1.3240
 30
 0.0
 42
1.0
  0
SEQEND
  8
SST
  0
POLYLINE
  8
SST
 66
      1
 70
1
 40
0.0030
 41
0.0030
  0
VERTEX
  8
SST
 10
2.7065
 20
1.3240
 30
 0.0
 42
1.0
  0
VERTEX
  8
SST
 10
2.7095
 20
1.3240
 30
 0.0
 42
1.0
  0
SEQEND
  8
SST
  0
POLYLINE
  8
SST
 66
      1
 70
1
 40
0.0030
 41
0.0030
  0
VERTEX
  8
SST
 10
2.7065
 20
1.2740
 30
 0.0
 42
1.0
  0
VERTEX
  8
SST
 10
2.7095
 20
1.2740
 30
 0.0
 42
1.0
  0
SEQEND
  8
SST
  0
POLYLINE
  8
SST
 66
      1
 70
1
 40
0.0080
 41
0.0080
  0
VERTEX
  8
SST
 10
2.2500
 20
1.2220
 30
 0.0
  0
VERTEX
  8
SST
 10
2.2500
 20
1.2610
 30
 0.0
  0
VERTEX
  8
SST
 10
2.2100
 20
1.2610
 30
 0.0
  0
VERTEX
  8
SST
 10
2.2100
 20
1.2220
 30
 0.0
  0
VERTEX
  8
SST
 10
2.2500
 20
1.2220
 30
 0.0
  0
SEQEND
  8
SST
  0
POLYLINE
  8
SST
 66
      1
 70
1
 40
0.0040
 41
0.0040
  0
VERTEX
  8
SST
 10
2.2480
 20
1.2220
 30
 0.0
 42
1.0
  0
VERTEX
  8
SST
 10
2.2520
 20
1.2220
 30
 0.0
 42
1.0
  0
SEQEND
  8
SST
  0
POLYLINE
  8
SST
 66
      1
 70
1
 40
0.0040
 41
0.0040
  0
VERTEX
  8
SST
 10
2.2480
 20
1.2610
 30
 0.0
 42
1.0
  0
VERTEX
  8
SST
 10
2.2520
 20
1.2610
 30
 0.0
 42
1.0
  0
SEQEND
  8
SST
  0
POLYLINE
  8
SST
 66
      1
 70
1
 40
0.0040
 41
0.0040
  0
VERTEX
  8
SST
 10
2.2080
 20
1.2610
 30
 0.0
 42
1.0
  0
VERTEX
  8
SST
 10
2.2120
 20
1.2610
 30
 0.0
 42
1.0
  0
SEQEND
  8
SST
  0
POLYLINE
  8
SST
 66
      1
 70
1
 40
0.0040
 41
0.0040
  0
VERTEX
  8
SST
 10
2.2080
 20
1.2220
 30
 0.0
 42
1.0
  0
VERTEX
  8
SST
 10
2.2120
 20
1.2220
 30
 0.0
 42
1.0
  0
SEQEND
  8
SST
  0
POLYLINE
  8
SST
 66
      1
 70
1
 40
0.0040
 41
0.0040
  0
VERTEX
  8
SST
 10
2.2480
 20
1.2220
 30
 0.0
 42
1.0
  0
VERTEX
  8
SST
 10
2.2520
 20
1.2220
 30
 0.0
 42
1.0
  0
SEQEND
  8
SST
  0
POLYLINE
  8
SST
 66
      1
 70
1
 40
0.0080
 41
0.0080
  0
VERTEX
  8
SST
 10
2.0840
 20
1.2130
 30
 0.0
  0
VERTEX
  8
SST
 10
2.0840
 20
1.3380
 30
 0.0
  0
VERTEX
  8
SST
 10
2.2590
 20
1.3380
 30
 0.0
  0
VERTEX
  8
SST
 10
2.2590
 20
1.2130
 30
 0.0
  0
VERTEX
  8
SST
 10
2.0840
 20
1.2130
 30
 0.0
  0
SEQEND
  8
SST
  0
POLYLINE
  8
SST
 66
      1
 70
1
 40
0.0040
 41
0.0040
  0
VERTEX
  8
SST
 10
2.0820
 20
1.2130
 30
 0.0
 42
1.0
  0
VERTEX
  8
SST
 10
2.0860
 20
1.2130
 30
 0.0
 42
1.0
  0
SEQEND
  8
SST
  0
POLYLINE
  8
SST
 66
      1
 70
1
 40
0.0040
 41
0.0040
  0
VERTEX
  8
SST
 10
2.0820
 20
1.3380
 30
 0.0
 42
1.0
  0
VERTEX
  8
SST
 10
2.0860
 20
1.3380
 30
 0.0
 42
1.0
  0
SEQEND
  8
SST
  0
POLYLINE
  8
SST
 66
      1
 70
1
 40
0.0040
 41
0.0040
  0
VERTEX
  8
SST
 10
2.2570
 20
1.3380
 30
 0.0
 42
1.0
  0
VERTEX
  8
SST
 10
2.2610
 20
1.3380
 30
 0.0
 42
1.0
  0
SEQEND
  8
SST
  0
POLYLINE
  8
SST
 66
      1
 70
1
 40
0.0040
 41
0.0040
  0
VERTEX
  8
SST
 10
2.2570
 20
1.2130
 30
 0.0
 42
1.0
  0
VERTEX
  8
SST
 10
2.2610
 20
1.2130
 30
 0.0
 42
1.0
  0
SEQEND
  8
SST
  0
POLYLINE
  8
SST
 66
      1
 70
1
 40
0.0040
 41
0.0040
  0
VERTEX
  8
SST
 10
2.0820
 20
1.2130
 30
 0.0
 42
1.0
  0
VERTEX
  8
SST
 10
2.0860
 20
1.2130
 30
 0.0
 42
1.0
  0
SEQEND
  8
SST
  0
POLYLINE
  8
SST
 66
      1
 70
1
 40
0.0060
 41
0.0060
  0
VERTEX
  8
SST
 10
2.4120
 20
1.2200
 30
 0.0
  0
VERTEX
  8
SST
 10
2.4120
 20
1.3150
 30
 0.0
  0
VERTEX
  8
SST
 10
2.4620
 20
1.3150
 30
 0.0
  0
VERTEX
  8
SST
 10
2.4620
 20
1.2200
 30
 0.0
  0
VERTEX
  8
SST
 10
2.4120
 20
1.2200
 30
 0.0
  0
SEQEND
  8
SST
  0
POLYLINE
  8
SST
 66
      1
 70
1
 40
0.0030
 41
0.0030
  0
VERTEX
  8
SST
 10
2.4105
 20
1.2200
 30
 0.0
 42
1.0
  0
VERTEX
  8
SST
 10
2.4135
 20
1.2200
 30
 0.0
 42
1.0
  0
SEQEND
  8
SST
  0
POLYLINE
  8
SST
 66
      1
 70
1
 40
0.0030
 41
0.0030
  0
VERTEX
  8
SST
 10
2.4105
 20
1.3150
 30
 0.0
 42
1.0
  0
VERTEX
  8
SST
 10
2.4135
 20
1.3150
 30
 0.0
 42
1.0
  0
SEQEND
  8
SST
  0
POLYLINE
  8
SST
 66
      1
 70
1
 40
0.0030
 41
0.0030
  0
VERTEX
  8
SST
 10
2.4605
 20
1.3150
 30
 0.0
 42
1.0
  0
VERTEX
  8
SST
 10
2.4635
 20
1.3150
 30
 0.0
 42
1.0
  0
SEQEND
  8
SST
  0
POLYLINE
  8
SST
 66
      1
 70
1
 40
0.0030
 41
0.0030
  0
VERTEX
  8
SST
 10
2.4605
 20
1.2200
 30
 0.0
 42
1.0
  0
VERTEX
  8
SST
 10
2.4635
 20
1.2200
 30
 0.0
 42
1.0
  0
SEQEND
  8
SST
  0
POLYLINE
  8
SST
 66
      1
 70
1
 40
0.0030
 41
0.0030
  0
VERTEX
  8
SST
 10
2.4105
 20
1.2200
 30
 0.0
 42
1.0
  0
VERTEX
  8
SST
 10
2.4135
 20
1.2200
 30
 0.0
 42
1.0
  0
SEQEND
  8
SST
  0
POLYLINE
  8
SST
 66
      1
 70
1
 40
0.0060
 41
0.0060
  0
VERTEX
  8
SST
 10
2.4200
 20
1.2630
 30
 0.0
  0
VERTEX
  8
SST
 10
2.4550
 20
1.2630
 30
 0.0
  0
VERTEX
  8
SST
 10
2.4550
 20
1.2730
 30
 0.0
  0
VERTEX
  8
SST
 10
2.4200
 20
1.2730
 30
 0.0
  0
VERTEX
  8
SST
 10
2.4200
 20
1.2630
 30
 0.0
  0
SEQEND
  8
SST
  0
POLYLINE
  8
SST
 66
      1
 70
1
 40
0.0030
 41
0.0030
  0
VERTEX
  8
SST
 10
2.4185
 20
1.2630
 30
 0.0
 42
1.0
  0
VERTEX
  8
SST
 10
2.4215
 20
1.2630
 30
 0.0
 42
1.0
  0
SEQEND
  8
SST
  0
POLYLINE
  8
SST
 66
      1
 70
1
 40
0.0030
 41
0.0030
  0
VERTEX
  8
SST
 10
2.4535
 20
1.2630
 30
 0.0
 42
1.0
  0
VERTEX
  8
SST
 10
2.4565
 20
1.2630
 30
 0.0
 42
1.0
  0
SEQEND
  8
SST
  0
POLYLINE
  8
SST
 66
      1
 70
1
 40
0.0030
 41
0.0030
  0
VERTEX
  8
SST
 10
2.4535
 20
1.2730
 30
 0.0
 42
1.0
  0
VERTEX
  8
SST
 10
2.4565
 20
1.2730
 30
 0.0
 42
1.0
  0
SEQEND
  8
SST
  0
POLYLINE
  8
SST
 66
      1
 70
1
 40
0.0030
 41
0.0030
  0
VERTEX
  8
SST
 10
2.4185
 20
1.2730
 30
 0.0
 42
1.0
  0
VERTEX
  8
SST
 10
2.4215
 20
1.2730
 30
 0.0
 42
1.0
  0
SEQEND
  8
SST
  0
POLYLINE
  8
SST
 66
      1
 70
1
 40
0.0030
 41
0.0030
  0
VERTEX
  8
SST
 10
2.4185
 20
1.2630
 30
 0.0
 42
1.0
  0
VERTEX
  8
SST
 10
2.4215
 20
1.2630
 30
 0.0
 42
1.0
  0
SEQEND
  8
SST
  0
POLYLINE
  8
SST
 66
      1
 70
1
 40
0.0100
 41
0.0100
  0
VERTEX
  8
SST
 10
0.5860
 20
1.0800
 30
 0.0
  0
VERTEX
  8
SST
 10
0.5860
 20
0.6960
 30
 0.0
  0
VERTEX
  8
SST
 10
0.9010
 20
0.6960
 30
 0.0
  0
VERTEX
  8
SST
 10
0.9010
 20
1.0800
 30
 0.0
  0
VERTEX
  8
SST
 10
0.5860
 20
1.0800
 30
 0.0
  0
SEQEND
  8
SST
  0
POLYLINE
  8
SST
 66
      1
 70
1
 40
0.0050
 41
0.0050
  0
VERTEX
  8
SST
 10
0.5835
 20
1.0800
 30
 0.0
 42
1.0
  0
VERTEX
  8
SST
 10
0.5885
 20
1.0800
 30
 0.0
 42
1.0
  0
SEQEND
  8
SST
  0
POLYLINE
  8
SST
 66
      1
 70
1
 40
0.0050
 41
0.0050
  0
VERTEX
  8
SST
 10
0.5835
 20
0.6960
 30
 0.0
 42
1.0
  0
VERTEX
  8
SST
 10
0.5885
 20
0.6960
 30
 0.0
 42
1.0
  0
SEQEND
  8
SST
  0
POLYLINE
  8
SST
 66
      1
 70
1
 40
0.0050
 41
0.0050
  0
VERTEX
  8
SST
 10
0.8985
 20
0.6960
 30
 0.0
 42
1.0
  0
VERTEX
  8
SST
 10
0.9035
 20
0.6960
 30
 0.0
 42
1.0
  0
SEQEND
  8
SST
  0
POLYLINE
  8
SST
 66
      1
 70
1
 40
0.0050
 41
0.0050
  0
VERTEX
  8
SST
 10
0.8985
 20
1.0800
 30
 0.0
 42
1.0
  0
VERTEX
  8
SST
 10
0.9035
 20
1.0800
 30
 0.0
 42
1.0
  0
SEQEND
  8
SST
  0
POLYLINE
  8
SST
 66
      1
 70
1
 40
0.0050
 41
0.0050
  0
VERTEX
  8
SST
 10
0.5835
 20
1.0800
 30
 0.0
 42
1.0
  0
VERTEX
  8
SST
 10
0.5885
 20
1.0800
 30
 0.0
 42
1.0
  0
SEQEND
  8
SST
  0
POLYLINE
  8
SST
 66
      1
 70
1
 40
0.0100
 41
0.0100
  0
VERTEX
  8
SST
 10
0.5850
 20
1.5230
 30
 0.0
  0
VERTEX
  8
SST
 10
0.5850
 20
1.1340
 30
 0.0
  0
VERTEX
  8
SST
 10
0.9010
 20
1.1340
 30
 0.0
  0
VERTEX
  8
SST
 10
0.9010
 20
1.5230
 30
 0.0
  0
VERTEX
  8
SST
 10
0.5850
 20
1.5230
 30
 0.0
  0
SEQEND
  8
SST
  0
POLYLINE
  8
SST
 66
      1
 70
1
 40
0.0050
 41
0.0050
  0
VERTEX
  8
SST
 10
0.5825
 20
1.5230
 30
 0.0
 42
1.0
  0
VERTEX
  8
SST
 10
0.5875
 20
1.5230
 30
 0.0
 42
1.0
  0
SEQEND
  8
SST
  0
POLYLINE
  8
SST
 66
      1
 70
1
 40
0.0050
 41
0.0050
  0
VERTEX
  8
SST
 10
0.5825
 20
1.1340
 30
 0.0
 42
1.0
  0
VERTEX
  8
SST
 10
0.5875
 20
1.1340
 30
 0.0
 42
1.0
  0
SEQEND
  8
SST
  0
POLYLINE
  8
SST
 66
      1
 70
1
 40
0.0050
 41
0.0050
  0
VERTEX
  8
SST
 10
0.8985
 20
1.1340
 30
 0.0
 42
1.0
  0
VERTEX
  8
SST
 10
0.9035
 20
1.1340
 30
 0.0
 42
1.0
  0
SEQEND
  8
SST
  0
POLYLINE
  8
SST
 66
      1
 70
1
 40
0.0050
 41
0.0050
  0
VERTEX
  8
SST
 10
0.8985
 20
1.5230
 30
 0.0
 42
1.0
  0
VERTEX
  8
SST
 10
0.9035
 20
1.5230
 30
 0.0
 42
1.0
  0
SEQEND
  8
SST
  0
POLYLINE
  8
SST
 66
      1
 70
1
 40
0.0050
 41
0.0050
  0
VERTEX
  8
SST
 10
0.5825
 20
1.5230
 30
 0.0
 42
1.0
  0
VERTEX
  8
SST
 10
0.5875
 20
1.5230
 30
 0.0
 42
1.0
  0
SEQEND
  8
SST
  0
POLYLINE
  8
SST
 66
      1
 70
1
 40
0.0100
 41
0.0100
  0
VERTEX
  8
SST
 10
2.5030
 20
1.0990
 30
 0.0
  0
VERTEX
  8
SST
 10
2.5030
 20
1.1510
 30
 0.0
  0
VERTEX
  8
SST
 10
2.8450
 20
1.1510
 30
 0.0
  0
VERTEX
  8
SST
 10
2.8450
 20
0.7060
 30
 0.0
  0
VERTEX
  8
SST
 10
2.5030
 20
0.7060
 30
 0.0
  0
VERTEX
  8
SST
 10
2.5030
 20
1.0990
 30
 0.0
  0
SEQEND
  8
SST
  0
POLYLINE
  8
SST
 66
      1
 70
1
 40
0.0050
 41
0.0050
  0
VERTEX
  8
SST
 10
2.5005
 20
1.0990
 30
 0.0
 42
1.0
  0
VERTEX
  8
SST
 10
2.5055
 20
1.0990
 30
 0.0
 42
1.0
  0
SEQEND
  8
SST
  0
POLYLINE
  8
SST
 66
      1
 70
1
 40
0.0050
 41
0.0050
  0
VERTEX
  8
SST
 10
2.5005
 20
1.1510
 30
 0.0
 42
1.0
  0
VERTEX
  8
SST
 10
2.5055
 20
1.1510
 30
 0.0
 42
1.0
  0
SEQEND
  8
SST
  0
POLYLINE
  8
SST
 66
      1
 70
1
 40
0.0050
 41
0.0050
  0
VERTEX
  8
SST
 10
2.8425
 20
1.1510
 30
 0.0
 42
1.0
  0
VERTEX
  8
SST
 10
2.8475
 20
1.1510
 30
 0.0
 42
1.0
  0
SEQEND
  8
SST
  0
POLYLINE
  8
SST
 66
      1
 70
1
 40
0.0050
 41
0.0050
  0
VERTEX
  8
SST
 10
2.8425
 20
0.7060
 30
 0.0
 42
1.0
  0
VERTEX
  8
SST
 10
2.8475
 20
0.7060
 30
 0.0
 42
1.0
  0
SEQEND
  8
SST
  0
POLYLINE
  8
SST
 66
      1
 70
1
 40
0.0050
 41
0.0050
  0
VERTEX
  8
SST
 10
2.5005
 20
0.7060
 30
 0.0
 42
1.0
  0
VERTEX
  8
SST
 10
2.5055
 20
0.7060
 30
 0.0
 42
1.0
  0
SEQEND
  8
SST
  0
POLYLINE
  8
SST
 66
      1
 70
1
 40
0.0050
 41
0.0050
  0
VERTEX
  8
SST
 10
2.5005
 20
1.0990
 30
 0.0
 42
1.0
  0
VERTEX
  8
SST
 10
2.5055
 20
1.0990
 30
 0.0
 42
1.0
  0
SEQEND
  8
SST
  0
POLYLINE
  8
SST
 66
      1
 70
1
 40
0.0100
 41
0.0100
  0
VERTEX
  8
SST
 10
2.6220
 20
1.0960
 30
 0.0
  0
VERTEX
  8
SST
 10
2.6220
 20
1.0810
 30
 0.0
  0
VERTEX
  8
SST
 10
2.7420
 20
1.0810
 30
 0.0
  0
VERTEX
  8
SST
 10
2.7420
 20
1.0960
 30
 0.0
  0
VERTEX
  8
SST
 10
2.6220
 20
1.0960
 30
 0.0
  0
SEQEND
  8
SST
  0
POLYLINE
  8
SST
 66
      1
 70
1
 40
0.0050
 41
0.0050
  0
VERTEX
  8
SST
 10
2.6195
 20
1.0960
 30
 0.0
 42
1.0
  0
VERTEX
  8
SST
 10
2.6245
 20
1.0960
 30
 0.0
 42
1.0
  0
SEQEND
  8
SST
  0
POLYLINE
  8
SST
 66
      1
 70
1
 40
0.0050
 41
0.0050
  0
VERTEX
  8
SST
 10
2.6195
 20
1.0810
 30
 0.0
 42
1.0
  0
VERTEX
  8
SST
 10
2.6245
 20
1.0810
 30
 0.0
 42
1.0
  0
SEQEND
  8
SST
  0
POLYLINE
  8
SST
 66
      1
 70
1
 40
0.0050
 41
0.0050
  0
VERTEX
  8
SST
 10
2.7395
 20
1.0810
 30
 0.0
 42
1.0
  0
VERTEX
  8
SST
 10
2.7445
 20
1.0810
 30
 0.0
 42
1.0
  0
SEQEND
  8
SST
  0
POLYLINE
  8
SST
 66
      1
 70
1
 40
0.0050
 41
0.0050
  0
VERTEX
  8
SST
 10
2.7395
 20
1.0960
 30
 0.0
 42
1.0
  0
VERTEX
  8
SST
 10
2.7445
 20
1.0960
 30
 0.0
 42
1.0
  0
SEQEND
  8
SST
  0
POLYLINE
  8
SST
 66
      1
 70
1
 40
0.0050
 41
0.0050
  0
VERTEX
  8
SST
 10
2.6195
 20
1.0960
 30
 0.0
 42
1.0
  0
VERTEX
  8
SST
 10
2.6245
 20
1.0960
 30
 0.0
 42
1.0
  0
SEQEND
  8
SST
  0
POLYLINE
  8
SST
 66
      1
 70
1
 40
0.0100
 41
0.0100
  0
VERTEX
  8
SST
 10
2.6210
 20
0.7750
 30
 0.0
  0
VERTEX
  8
SST
 10
2.6210
 20
0.7600
 30
 0.0
  0
VERTEX
  8
SST
 10
2.7410
 20
0.7600
 30
 0.0
  0
VERTEX
  8
SST
 10
2.7410
 20
0.7750
 30
 0.0
  0
VERTEX
  8
SST
 10
2.6210
 20
0.7750
 30
 0.0
  0
SEQEND
  8
SST
  0
POLYLINE
  8
SST
 66
      1
 70
1
 40
0.0050
 41
0.0050
  0
VERTEX
  8
SST
 10
2.6185
 20
0.7750
 30
 0.0
 42
1.0
  0
VERTEX
  8
SST
 10
2.6235
 20
0.7750
 30
 0.0
 42
1.0
  0
SEQEND
  8
SST
  0
POLYLINE
  8
SST
 66
      1
 70
1
 40
0.0050
 41
0.0050
  0
VERTEX
  8
SST
 10
2.6185
 20
0.7600
 30
 0.0
 42
1.0
  0
VERTEX
  8
SST
 10
2.6235
 20
0.7600
 30
 0.0
 42
1.0
  0
SEQEND
  8
SST
  0
POLYLINE
  8
SST
 66
      1
 70
1
 40
0.0050
 41
0.0050
  0
VERTEX
  8
SST
 10
2.7385
 20
0.7600
 30
 0.0
 42
1.0
  0
VERTEX
  8
SST
 10
2.7435
 20
0.7600
 30
 0.0
 42
1.0
  0
SEQEND
  8
SST
  0
POLYLINE
  8
SST
 66
      1
 70
1
 40
0.0050
 41
0.0050
  0
VERTEX
  8
SST
 10
2.7385
 20
0.7750
 30
 0.0
 42
1.0
  0
VERTEX
  8
SST
 10
2.7435
 20
0.7750
 30
 0.0
 42
1.0
  0
SEQEND
  8
SST
  0
POLYLINE
  8
SST
 66
      1
 70
1
 40
0.0050
 41
0.0050
  0
VERTEX
  8
SST
 10
2.6185
 20
0.7750
 30
 0.0
 42
1.0
  0
VERTEX
  8
SST
 10
2.6235
 20
0.7750
 30
 0.0
 42
1.0
  0
SEQEND
  8
SST
  0
POLYLINE
  8
SST
 66
      1
 70
1
 40
0.0100
 41
0.0100
  0
VERTEX
  8
SST
 10
0.6860
 20
0.7490
 30
 0.0
  0
VERTEX
  8
SST
 10
0.6860
 20
0.7340
 30
 0.0
  0
VERTEX
  8
SST
 10
0.8060
 20
0.7340
 30
 0.0
  0
VERTEX
  8
SST
 10
0.8060
 20
0.7490
 30
 0.0
  0
VERTEX
  8
SST
 10
0.6860
 20
0.7490
 30
 0.0
  0
SEQEND
  8
SST
  0
POLYLINE
  8
SST
 66
      1
 70
1
 40
0.0050
 41
0.0050
  0
VERTEX
  8
SST
 10
0.6835
 20
0.7490
 30
 0.0
 42
1.0
  0
VERTEX
  8
SST
 10
0.6885
 20
0.7490
 30
 0.0
 42
1.0
  0
SEQEND
  8
SST
  0
POLYLINE
  8
SST
 66
      1
 70
1
 40
0.0050
 41
0.0050
  0
VERTEX
  8
SST
 10
0.6835
 20
0.7340
 30
 0.0
 42
1.0
  0
VERTEX
  8
SST
 10
0.6885
 20
0.7340
 30
 0.0
 42
1.0
  0
SEQEND
  8
SST
  0
POLYLINE
  8
SST
 66
      1
 70
1
 40
0.0050
 41
0.0050
  0
VERTEX
  8
SST
 10
0.8035
 20
0.7340
 30
 0.0
 42
1.0
  0
VERTEX
  8
SST
 10
0.8085
 20
0.7340
 30
 0.0
 42
1.0
  0
SEQEND
  8
SST
  0
POLYLINE
  8
SST
 66
      1
 70
1
 40
0.0050
 41
0.0050
  0
VERTEX
  8
SST
 10
0.8035
 20
0.7490
 30
 0.0
 42
1.0
  0
VERTEX
  8
SST
 10
0.8085
 20
0.7490
 30
 0.0
 42
1.0
  0
SEQEND
  8
SST
  0
POLYLINE
  8
SST
 66
      1
 70
1
 40
0.0050
 41
0.0050
  0
VERTEX
  8
SST
 10
0.6835
 20
0.7490
 30
 0.0
 42
1.0
  0
VERTEX
  8
SST
 10
0.6885
 20
0.7490
 30
 0.0
 42
1.0
  0
SEQEND
  8
SST
  0
POLYLINE
  8
SST
 66
      1
 70
1
 40
0.0100
 41
0.0100
  0
VERTEX
  8
SST
 10
0.6860
 20
0.9710
 30
 0.0
  0
VERTEX
  8
SST
 10
0.6860
 20
0.9560
 30
 0.0
  0
VERTEX
  8
SST
 10
0.8060
 20
0.9560
 30
 0.0
  0
VERTEX
  8
SST
 10
0.8060
 20
0.9710
 30
 0.0
  0
VERTEX
  8
SST
 10
0.6860
 20
0.9710
 30
 0.0
  0
SEQEND
  8
SST
  0
POLYLINE
  8
SST
 66
      1
 70
1
 40
0.0050
 41
0.0050
  0
VERTEX
  8
SST
 10
0.6835
 20
0.9710
 30
 0.0
 42
1.0
  0
VERTEX
  8
SST
 10
0.6885
 20
0.9710
 30
 0.0
 42
1.0
  0
SEQEND
  8
SST
  0
POLYLINE
  8
SST
 66
      1
 70
1
 40
0.0050
 41
0.0050
  0
VERTEX
  8
SST
 10
0.6835
 20
0.9560
 30
 0.0
 42
1.0
  0
VERTEX
  8
SST
 10
0.6885
 20
0.9560
 30
 0.0
 42
1.0
  0
SEQEND
  8
SST
  0
POLYLINE
  8
SST
 66
      1
 70
1
 40
0.0050
 41
0.0050
  0
VERTEX
  8
SST
 10
0.8035
 20
0.9560
 30
 0.0
 42
1.0
  0
VERTEX
  8
SST
 10
0.8085
 20
0.9560
 30
 0.0
 42
1.0
  0
SEQEND
  8
SST
  0
POLYLINE
  8
SST
 66
      1
 70
1
 40
0.0050
 41
0.0050
  0
VERTEX
  8
SST
 10
0.8035
 20
0.9710
 30
 0.0
 42
1.0
  0
VERTEX
  8
SST
 10
0.8085
 20
0.9710
 30
 0.0
 42
1.0
  0
SEQEND
  8
SST
  0
POLYLINE
  8
SST
 66
      1
 70
1
 40
0.0050
 41
0.0050
  0
VERTEX
  8
SST
 10
0.6835
 20
0.9710
 30
 0.0
 42
1.0
  0
VERTEX
  8
SST
 10
0.6885
 20
0.9710
 30
 0.0
 42
1.0
  0
SEQEND
  8
SST
  0
POLYLINE
  8
SST
 66
      1
 70
1
 40
0.0060
 41
0.0060
  0
VERTEX
  8
SST
 10
2.4020
 20
1.3160
 30
 0.0
  0
VERTEX
  8
SST
 10
2.3520
 20
1.3160
 30
 0.0
  0
VERTEX
  8
SST
 10
2.3520
 20
1.2210
 30
 0.0
  0
VERTEX
  8
SST
 10
2.4020
 20
1.2210
 30
 0.0
  0
VERTEX
  8
SST
 10
2.4020
 20
1.3160
 30
 0.0
  0
SEQEND
  8
SST
  0
POLYLINE
  8
SST
 66
      1
 70
1
 40
0.0030
 41
0.0030
  0
VERTEX
  8
SST
 10
2.4005
 20
1.3160
 30
 0.0
 42
1.0
  0
VERTEX
  8
SST
 10
2.4035
 20
1.3160
 30
 0.0
 42
1.0
  0
SEQEND
  8
SST
  0
POLYLINE
  8
SST
 66
      1
 70
1
 40
0.0030
 41
0.0030
  0
VERTEX
  8
SST
 10
2.3505
 20
1.3160
 30
 0.0
 42
1.0
  0
VERTEX
  8
SST
 10
2.3535
 20
1.3160
 30
 0.0
 42
1.0
  0
SEQEND
  8
SST
  0
POLYLINE
  8
SST
 66
      1
 70
1
 40
0.0030
 41
0.0030
  0
VERTEX
  8
SST
 10
2.3505
 20
1.2210
 30
 0.0
 42
1.0
  0
VERTEX
  8
SST
 10
2.3535
 20
1.2210
 30
 0.0
 42
1.0
  0
SEQEND
  8
SST
  0
POLYLINE
  8
SST
 66
      1
 70
1
 40
0.0030
 41
0.0030
  0
VERTEX
  8
SST
 10
2.4005
 20
1.2210
 30
 0.0
 42
1.0
  0
VERTEX
  8
SST
 10
2.4035
 20
1.2210
 30
 0.0
 42
1.0
  0
SEQEND
  8
SST
  0
POLYLINE
  8
SST
 66
      1
 70
1
 40
0.0030
 41
0.0030
  0
VERTEX
  8
SST
 10
2.4005
 20
1.3160
 30
 0.0
 42
1.0
  0
VERTEX
  8
SST
 10
2.4035
 20
1.3160
 30
 0.0
 42
1.0
  0
SEQEND
  8
SST
  0
POLYLINE
  8
SST
 66
      1
 70
1
 40
0.0060
 41
0.0060
  0
VERTEX
  8
SST
 10
2.3950
 20
1.2740
 30
 0.0
  0
VERTEX
  8
SST
 10
2.3600
 20
1.2740
 30
 0.0
  0
VERTEX
  8
SST
 10
2.3600
 20
1.2640
 30
 0.0
  0
VERTEX
  8
SST
 10
2.3950
 20
1.2640
 30
 0.0
  0
VERTEX
  8
SST
 10
2.3950
 20
1.2740
 30
 0.0
  0
SEQEND
  8
SST
  0
POLYLINE
  8
SST
 66
      1
 70
1
 40
0.0030
 41
0.0030
  0
VERTEX
  8
SST
 10
2.3935
 20
1.2740
 30
 0.0
 42
1.0
  0
VERTEX
  8
SST
 10
2.3965
 20
1.2740
 30
 0.0
 42
1.0
  0
SEQEND
  8
SST
  0
POLYLINE
  8
SST
 66
      1
 70
1
 40
0.0030
 41
0.0030
  0
VERTEX
  8
SST
 10
2.3585
 20
1.2740
 30
 0.0
 42
1.0
  0
VERTEX
  8
SST
 10
2.3615
 20
1.2740
 30
 0.0
 42
1.0
  0
SEQEND
  8
SST
  0
POLYLINE
  8
SST
 66
      1
 70
1
 40
0.0030
 41
0.0030
  0
VERTEX
  8
SST
 10
2.3585
 20
1.2640
 30
 0.0
 42
1.0
  0
VERTEX
  8
SST
 10
2.3615
 20
1.2640
 30
 0.0
 42
1.0
  0
SEQEND
  8
SST
  0
POLYLINE
  8
SST
 66
      1
 70
1
 40
0.0030
 41
0.0030
  0
VERTEX
  8
SST
 10
2.3935
 20
1.2640
 30
 0.0
 42
1.0
  0
VERTEX
  8
SST
 10
2.3965
 20
1.2640
 30
 0.0
 42
1.0
  0
SEQEND
  8
SST
  0
POLYLINE
  8
SST
 66
      1
 70
1
 40
0.0030
 41
0.0030
  0
VERTEX
  8
SST
 10
2.3935
 20
1.2740
 30
 0.0
 42
1.0
  0
VERTEX
  8
SST
 10
2.3965
 20
1.2740
 30
 0.0
 42
1.0
  0
SEQEND
  8
SST
  0
POLYLINE
  8
SST
 66
      1
 70
1
 40
0.0060
 41
0.0060
  0
VERTEX
  8
SST
 10
2.4070
 20
0.9050
 30
 0.0
  0
VERTEX
  8
SST
 10
2.3570
 20
0.9050
 30
 0.0
  0
VERTEX
  8
SST
 10
2.3570
 20
0.8100
 30
 0.0
  0
VERTEX
  8
SST
 10
2.4070
 20
0.8100
 30
 0.0
  0
VERTEX
  8
SST
 10
2.4070
 20
0.9050
 30
 0.0
  0
SEQEND
  8
SST
  0
POLYLINE
  8
SST
 66
      1
 70
1
 40
0.0030
 41
0.0030
  0
VERTEX
  8
SST
 10
2.4055
 20
0.9050
 30
 0.0
 42
1.0
  0
VERTEX
  8
SST
 10
2.4085
 20
0.9050
 30
 0.0
 42
1.0
  0
SEQEND
  8
SST
  0
POLYLINE
  8
SST
 66
      1
 70
1
 40
0.0030
 41
0.0030
  0
VERTEX
  8
SST
 10
2.3555
 20
0.9050
 30
 0.0
 42
1.0
  0
VERTEX
  8
SST
 10
2.3585
 20
0.9050
 30
 0.0
 42
1.0
  0
SEQEND
  8
SST
  0
POLYLINE
  8
SST
 66
      1
 70
1
 40
0.0030
 41
0.0030
  0
VERTEX
  8
SST
 10
2.3555
 20
0.8100
 30
 0.0
 42
1.0
  0
VERTEX
  8
SST
 10
2.3585
 20
0.8100
 30
 0.0
 42
1.0
  0
SEQEND
  8
SST
  0
POLYLINE
  8
SST
 66
      1
 70
1
 40
0.0030
 41
0.0030
  0
VERTEX
  8
SST
 10
2.4055
 20
0.8100
 30
 0.0
 42
1.0
  0
VERTEX
  8
SST
 10
2.4085
 20
0.8100
 30
 0.0
 42
1.0
  0
SEQEND
  8
SST
  0
POLYLINE
  8
SST
 66
      1
 70
1
 40
0.0030
 41
0.0030
  0
VERTEX
  8
SST
 10
2.4055
 20
0.9050
 30
 0.0
 42
1.0
  0
VERTEX
  8
SST
 10
2.4085
 20
0.9050
 30
 0.0
 42
1.0
  0
SEQEND
  8
SST
  0
POLYLINE
  8
SST
 66
      1
 70
1
 40
0.0060
 41
0.0060
  0
VERTEX
  8
SST
 10
2.4000
 20
0.8630
 30
 0.0
  0
VERTEX
  8
SST
 10
2.3650
 20
0.8630
 30
 0.0
  0
VERTEX
  8
SST
 10
2.3650
 20
0.8530
 30
 0.0
  0
VERTEX
  8
SST
 10
2.4000
 20
0.8530
 30
 0.0
  0
VERTEX
  8
SST
 10
2.4000
 20
0.8630
 30
 0.0
  0
SEQEND
  8
SST
  0
POLYLINE
  8
SST
 66
      1
 70
1
 40
0.0030
 41
0.0030
  0
VERTEX
  8
SST
 10
2.3985
 20
0.8630
 30
 0.0
 42
1.0
  0
VERTEX
  8
SST
 10
2.4015
 20
0.8630
 30
 0.0
 42
1.0
  0
SEQEND
  8
SST
  0
POLYLINE
  8
SST
 66
      1
 70
1
 40
0.0030
 41
0.0030
  0
VERTEX
  8
SST
 10
2.3635
 20
0.8630
 30
 0.0
 42
1.0
  0
VERTEX
  8
SST
 10
2.3665
 20
0.8630
 30
 0.0
 42
1.0
  0
SEQEND
  8
SST
  0
POLYLINE
  8
SST
 66
      1
 70
1
 40
0.0030
 41
0.0030
  0
VERTEX
  8
SST
 10
2.3635
 20
0.8530
 30
 0.0
 42
1.0
  0
VERTEX
  8
SST
 10
2.3665
 20
0.8530
 30
 0.0
 42
1.0
  0
SEQEND
  8
SST
  0
POLYLINE
  8
SST
 66
      1
 70
1
 40
0.0030
 41
0.0030
  0
VERTEX
  8
SST
 10
2.3985
 20
0.8530
 30
 0.0
 42
1.0
  0
VERTEX
  8
SST
 10
2.4015
 20
0.8530
 30
 0.0
 42
1.0
  0
SEQEND
  8
SST
  0
POLYLINE
  8
SST
 66
      1
 70
1
 40
0.0030
 41
0.0030
  0
VERTEX
  8
SST
 10
2.3985
 20
0.8630
 30
 0.0
 42
1.0
  0
VERTEX
  8
SST
 10
2.4015
 20
0.8630
 30
 0.0
 42
1.0
  0
SEQEND
  8
SST
  0
POLYLINE
  8
SST
 66
      1
 70
0
 40
0.0080
 41
0.0080
  0
VERTEX
  8
SST
 10
2.5560
 20
1.4670
 30
 0.0
  0
VERTEX
  8
SST
 10
2.1710
 20
1.4670
 30
 0.0
  0
SEQEND
  8
SST
  0
POLYLINE
  8
SST
 66
      1
 70
1
 40
0.0040
 41
0.0040
  0
VERTEX
  8
SST
 10
2.5540
 20
1.4670
 30
 0.0
 42
1.0
  0
VERTEX
  8
SST
 10
2.5580
 20
1.4670
 30
 0.0
 42
1.0
  0
SEQEND
  8
SST
  0
POLYLINE
  8
SST
 66
      1
 70
1
 40
0.0040
 41
0.0040
  0
VERTEX
  8
SST
 10
2.1690
 20
1.4670
 30
 0.0
 42
1.0
  0
VERTEX
  8
SST
 10
2.1730
 20
1.4670
 30
 0.0
 42
1.0
  0
SEQEND
  8
SST
  0
POLYLINE
  8
SST
 66
      1
 70
0
 40
0.0080
 41
0.0080
  0
VERTEX
  8
SST
 10
2.2850
 20
1.5850
 30
 0.0
  0
VERTEX
  8
SST
 10
2.2340
 20
1.5850
 30
 0.0
  0
SEQEND
  8
SST
  0
POLYLINE
  8
SST
 66
      1
 70
1
 40
0.0040
 41
0.0040
  0
VERTEX
  8
SST
 10
2.2830
 20
1.5850
 30
 0.0
 42
1.0
  0
VERTEX
  8
SST
 10
2.2870
 20
1.5850
 30
 0.0
 42
1.0
  0
SEQEND
  8
SST
  0
POLYLINE
  8
SST
 66
      1
 70
1
 40
0.0040
 41
0.0040
  0
VERTEX
  8
SST
 10
2.2320
 20
1.5850
 30
 0.0
 42
1.0
  0
VERTEX
  8
SST
 10
2.2360
 20
1.5850
 30
 0.0
 42
1.0
  0
SEQEND
  8
SST
  0
POLYLINE
  8
SST
 66
      1
 70
0
 40
0.0080
 41
0.0080
  0
VERTEX
  8
SST
 10
2.2600
 20
1.5600
 30
 0.0
  0
VERTEX
  8
SST
 10
2.2600
 20
1.6130
 30
 0.0
  0
SEQEND
  8
SST
  0
POLYLINE
  8
SST
 66
      1
 70
1
 40
0.0040
 41
0.0040
  0
VERTEX
  8
SST
 10
2.2580
 20
1.5600
 30
 0.0
 42
1.0
  0
VERTEX
  8
SST
 10
2.2620
 20
1.5600
 30
 0.0
 42
1.0
  0
SEQEND
  8
SST
  0
POLYLINE
  8
SST
 66
      1
 70
1
 40
0.0040
 41
0.0040
  0
VERTEX
  8
SST
 10
2.2580
 20
1.6130
 30
 0.0
 42
1.0
  0
VERTEX
  8
SST
 10
2.2620
 20
1.6130
 30
 0.0
 42
1.0
  0
SEQEND
  8
SST
  0
POLYLINE
  8
SST
 66
      1
 70
1
 40
0.0080
 41
0.0080
  0
VERTEX
  8
SST
 10
2.3630
 20
1.3230
 30
 0.0
 42
-0.414213562373095
  0
VERTEX
  8
SST
 10
2.1630
 20
1.5230
 30
 0.0
 42
-0.414213562373095
  0
VERTEX
  8
SST
 10
2.3630
 20
1.7230
 30
 0.0
 42
-0.414213562373095
  0
VERTEX
  8
SST
 10
2.5630
 20
1.5230
 30
 0.0
 42
-0.414213562373095
  0
VERTEX
  8
SST
 10
2.3630
 20
1.3230
 30
 0.0
 42
37.94745558899887
  0
SEQEND
  8
SST
  0
POLYLINE
  8
SST
 66
      1
 70
1
 40
0.0040
 41
0.0040
  0
VERTEX
  8
SST
 10
2.3610
 20
1.3230
 30
 0.0
 42
1.0
  0
VERTEX
  8
SST
 10
2.3650
 20
1.3230
 30
 0.0
 42
1.0
  0
SEQEND
  8
SST
  0
POLYLINE
  8
SST
 66
      1
 70
1
 40
0.0040
 41
0.0040
  0
VERTEX
  8
SST
 10
2.1610
 20
1.5230
 30
 0.0
 42
1.0
  0
VERTEX
  8
SST
 10
2.1650
 20
1.5230
 30
 0.0
 42
1.0
  0
SEQEND
  8
SST
  0
POLYLINE
  8
SST
 66
      1
 70
1
 40
0.0040
 41
0.0040
  0
VERTEX
  8
SST
 10
2.3610
 20
1.7230
 30
 0.0
 42
1.0
  0
VERTEX
  8
SST
 10
2.3650
 20
1.7230
 30
 0.0
 42
1.0
  0
SEQEND
  8
SST
  0
POLYLINE
  8
SST
 66
      1
 70
1
 40
0.0040
 41
0.0040
  0
VERTEX
  8
SST
 10
2.5610
 20
1.5230
 30
 0.0
 42
1.0
  0
VERTEX
  8
SST
 10
2.5650
 20
1.5230
 30
 0.0
 42
1.0
  0
SEQEND
  8
SST
  0
POLYLINE
  8
SST
 66
      1
 70
1
 40
0.0040
 41
0.0040
  0
VERTEX
  8
SST
 10
2.3610
 20
1.3230
 30
 0.0
 42
1.0
  0
VERTEX
  8
SST
 10
2.3650
 20
1.3230
 30
 0.0
 42
1.0
  0
SEQEND
  8
SST
  0
POLYLINE
  8
SST
 66
      1
 70
1
 40
0.0060
 41
0.0060
  0
VERTEX
  8
SST
 10
1.2780
 20
1.0170
 30
 0.0
  0
VERTEX
  8
SST
 10
1.2180
 20
1.0170
 30
 0.0
  0
VERTEX
  8
SST
 10
1.2180
 20
1.0670
 30
 0.0
  0
VERTEX
  8
SST
 10
1.2780
 20
1.0670
 30
 0.0
  0
VERTEX
  8
SST
 10
1.2780
 20
1.0170
 30
 0.0
 42
-1.246001321489521
  0
SEQEND
  8
SST
  0
POLYLINE
  8
SST
 66
      1
 70
1
 40
0.0030
 41
0.0030
  0
VERTEX
  8
SST
 10
1.2765
 20
1.0170
 30
 0.0
 42
1.0
  0
VERTEX
  8
SST
 10
1.2795
 20
1.0170
 30
 0.0
 42
1.0
  0
SEQEND
  8
SST
  0
POLYLINE
  8
SST
 66
      1
 70
1
 40
0.0030
 41
0.0030
  0
VERTEX
  8
SST
 10
1.2165
 20
1.0170
 30
 0.0
 42
1.0
  0
VERTEX
  8
SST
 10
1.2195
 20
1.0170
 30
 0.0
 42
1.0
  0
SEQEND
  8
SST
  0
POLYLINE
  8
SST
 66
      1
 70
1
 40
0.0030
 41
0.0030
  0
VERTEX
  8
SST
 10
1.2165
 20
1.0670
 30
 0.0
 42
1.0
  0
VERTEX
  8
SST
 10
1.2195
 20
1.0670
 30
 0.0
 42
1.0
  0
SEQEND
  8
SST
  0
POLYLINE
  8
SST
 66
      1
 70
1
 40
0.0030
 41
0.0030
  0
VERTEX
  8
SST
 10
1.2765
 20
1.0670
 30
 0.0
 42
1.0
  0
VERTEX
  8
SST
 10
1.2795
 20
1.0670
 30
 0.0
 42
1.0
  0
SEQEND
  8
SST
  0
POLYLINE
  8
SST
 66
      1
 70
1
 40
0.0030
 41
0.0030
  0
VERTEX
  8
SST
 10
1.2765
 20
1.0170
 30
 0.0
 42
1.0
  0
VERTEX
  8
SST
 10
1.2795
 20
1.0170
 30
 0.0
 42
1.0
  0
SEQEND
  8
SST
  0
POLYLINE
  8
SST
 66
      1
 70
0
 40
0.0080
 41
0.0080
  0
VERTEX
  8
SST
 10
1.7040
 20
1.4770
 30
 0.0
  0
VERTEX
  8
SST
 10
1.3190
 20
1.4770
 30
 0.0
  0
SEQEND
  8
SST
  0
POLYLINE
  8
SST
 66
      1
 70
1
 40
0.0040
 41
0.0040
  0
VERTEX
  8
SST
 10
1.7020
 20
1.4770
 30
 0.0
 42
1.0
  0
VERTEX
  8
SST
 10
1.7060
 20
1.4770
 30
 0.0
 42
1.0
  0
SEQEND
  8
SST
  0
POLYLINE
  8
SST
 66
      1
 70
1
 40
0.0040
 41
0.0040
  0
VERTEX
  8
SST
 10
1.3170
 20
1.4770
 30
 0.0
 42
1.0
  0
VERTEX
  8
SST
 10
1.3210
 20
1.4770
 30
 0.0
 42
1.0
  0
SEQEND
  8
SST
  0
POLYLINE
  8
SST
 66
      1
 70
1
 40
0.0060
 41
0.0060
  0
VERTEX
  8
SST
 10
1.8050
 20
0.7330
 30
 0.0
  0
VERTEX
  8
SST
 10
1.8050
 20
0.7680
 30
 0.0
  0
VERTEX
  8
SST
 10
1.7950
 20
0.7680
 30
 0.0
  0
VERTEX
  8
SST
 10
1.7950
 20
0.7330
 30
 0.0
  0
VERTEX
  8
SST
 10
1.8050
 20
0.7330
 30
 0.0
 42
-1.644150644758095
  0
SEQEND
  8
SST
  0
POLYLINE
  8
SST
 66
      1
 70
1
 40
0.0030
 41
0.0030
  0
VERTEX
  8
SST
 10
1.8035
 20
0.7330
 30
 0.0
 42
1.0
  0
VERTEX
  8
SST
 10
1.8065
 20
0.7330
 30
 0.0
 42
1.0
  0
SEQEND
  8
SST
  0
POLYLINE
  8
SST
 66
      1
 70
1
 40
0.0030
 41
0.0030
  0
VERTEX
  8
SST
 10
1.8035
 20
0.7680
 30
 0.0
 42
1.0
  0
VERTEX
  8
SST
 10
1.8065
 20
0.7680
 30
 0.0
 42
1.0
  0
SEQEND
  8
SST
  0
POLYLINE
  8
SST
 66
      1
 70
1
 40
0.0030
 41
0.0030
  0
VERTEX
  8
SST
 10
1.7935
 20
0.7680
 30
 0.0
 42
1.0
  0
VERTEX
  8
SST
 10
1.7965
 20
0.7680
 30
 0.0
 42
1.0
  0
SEQEND
  8
SST
  0
POLYLINE
  8
SST
 66
      1
 70
1
 40
0.0030
 41
0.0030
  0
VERTEX
  8
SST
 10
1.7935
 20
0.7330
 30
 0.0
 42
1.0
  0
VERTEX
  8
SST
 10
1.7965
 20
0.7330
 30
 0.0
 42
1.0
  0
SEQEND
  8
SST
  0
POLYLINE
  8
SST
 66
      1
 70
1
 40
0.0030
 41
0.0030
  0
VERTEX
  8
SST
 10
1.8035
 20
0.7330
 30
 0.0
 42
1.0
  0
VERTEX
  8
SST
 10
1.8065
 20
0.7330
 30
 0.0
 42
1.0
  0
SEQEND
  8
SST
  0
POLYLINE
  8
SST
 66
      1
 70
0
 40
0.0080
 41
0.0080
  0
VERTEX
  8
SST
 10
1.4330
 20
1.5950
 30
 0.0
  0
VERTEX
  8
SST
 10
1.3820
 20
1.5950
 30
 0.0
  0
SEQEND
  8
SST
  0
POLYLINE
  8
SST
 66
      1
 70
1
 40
0.0040
 41
0.0040
  0
VERTEX
  8
SST
 10
1.4310
 20
1.5950
 30
 0.0
 42
1.0
  0
VERTEX
  8
SST
 10
1.4350
 20
1.5950
 30
 0.0
 42
1.0
  0
SEQEND
  8
SST
  0
POLYLINE
  8
SST
 66
      1
 70
1
 40
0.0040
 41
0.0040
  0
VERTEX
  8
SST
 10
1.3800
 20
1.5950
 30
 0.0
 42
1.0
  0
VERTEX
  8
SST
 10
1.3840
 20
1.5950
 30
 0.0
 42
1.0
  0
SEQEND
  8
SST
  0
POLYLINE
  8
SST
 66
      1
 70
1
 40
0.0060
 41
0.0060
  0
VERTEX
  8
SST
 10
1.8470
 20
0.7250
 30
 0.0
  0
VERTEX
  8
SST
 10
1.8470
 20
0.7750
 30
 0.0
  0
VERTEX
  8
SST
 10
1.7520
 20
0.7750
 30
 0.0
  0
VERTEX
  8
SST
 10
1.7520
 20
0.7250
 30
 0.0
  0
VERTEX
  8
SST
 10
1.8470
 20
0.7250
 30
 0.0
 42
-1.682730203304563
  0
SEQEND
  8
SST
  0
POLYLINE
  8
SST
 66
      1
 70
1
 40
0.0030
 41
0.0030
  0
VERTEX
  8
SST
 10
1.8455
 20
0.7250
 30
 0.0
 42
1.0
  0
VERTEX
  8
SST
 10
1.8485
 20
0.7250
 30
 0.0
 42
1.0
  0
SEQEND
  8
SST
  0
POLYLINE
  8
SST
 66
      1
 70
1
 40
0.0030
 41
0.0030
  0
VERTEX
  8
SST
 10
1.8455
 20
0.7750
 30
 0.0
 42
1.0
  0
VERTEX
  8
SST
 10
1.8485
 20
0.7750
 30
 0.0
 42
1.0
  0
SEQEND
  8
SST
  0
POLYLINE
  8
SST
 66
      1
 70
1
 40
0.0030
 41
0.0030
  0
VERTEX
  8
SST
 10
1.7505
 20
0.7750
 30
 0.0
 42
1.0
  0
VERTEX
  8
SST
 10
1.7535
 20
0.7750
 30
 0.0
 42
1.0
  0
SEQEND
  8
SST
  0
POLYLINE
  8
SST
 66
      1
 70
1
 40
0.0030
 41
0.0030
  0
VERTEX
  8
SST
 10
1.7505
 20
0.7250
 30
 0.0
 42
1.0
  0
VERTEX
  8
SST
 10
1.7535
 20
0.7250
 30
 0.0
 42
1.0
  0
SEQEND
  8
SST
  0
POLYLINE
  8
SST
 66
      1
 70
1
 40
0.0030
 41
0.0030
  0
VERTEX
  8
SST
 10
1.8455
 20
0.7250
 30
 0.0
 42
1.0
  0
VERTEX
  8
SST
 10
1.8485
 20
0.7250
 30
 0.0
 42
1.0
  0
SEQEND
  8
SST
  0
POLYLINE
  8
SST
 66
      1
 70
0
 40
0.0080
 41
0.0080
  0
VERTEX
  8
SST
 10
1.4080
 20
1.5700
 30
 0.0
  0
VERTEX
  8
SST
 10
1.4080
 20
1.6230
 30
 0.0
  0
SEQEND
  8
SST
  0
POLYLINE
  8
SST
 66
      1
 70
1
 40
0.0040
 41
0.0040
  0
VERTEX
  8
SST
 10
1.4060
 20
1.5700
 30
 0.0
 42
1.0
  0
VERTEX
  8
SST
 10
1.4100
 20
1.5700
 30
 0.0
 42
1.0
  0
SEQEND
  8
SST
  0
POLYLINE
  8
SST
 66
      1
 70
1
 40
0.0040
 41
0.0040
  0
VERTEX
  8
SST
 10
1.4060
 20
1.6230
 30
 0.0
 42
1.0
  0
VERTEX
  8
SST
 10
1.4100
 20
1.6230
 30
 0.0
 42
1.0
  0
SEQEND
  8
SST
  0
POLYLINE
  8
SST
 66
      1
 70
1
 40
0.0060
 41
0.0060
  0
VERTEX
  8
SST
 10
1.8050
 20
0.6830
 30
 0.0
  0
VERTEX
  8
SST
 10
1.8050
 20
0.7180
 30
 0.0
  0
VERTEX
  8
SST
 10
1.7950
 20
0.7180
 30
 0.0
  0
VERTEX
  8
SST
 10
1.7950
 20
0.6830
 30
 0.0
  0
VERTEX
  8
SST
 10
1.8050
 20
0.6830
 30
 0.0
 42
-1.670952366522428
  0
SEQEND
  8
SST
  0
POLYLINE
  8
SST
 66
      1
 70
1
 40
0.0030
 41
0.0030
  0
VERTEX
  8
SST
 10
1.8035
 20
0.6830
 30
 0.0
 42
1.0
  0
VERTEX
  8
SST
 10
1.8065
 20
0.6830
 30
 0.0
 42
1.0
  0
SEQEND
  8
SST
  0
POLYLINE
  8
SST
 66
      1
 70
1
 40
0.0030
 41
0.0030
  0
VERTEX
  8
SST
 10
1.8035
 20
0.7180
 30
 0.0
 42
1.0
  0
VERTEX
  8
SST
 10
1.8065
 20
0.7180
 30
 0.0
 42
1.0
  0
SEQEND
  8
SST
  0
POLYLINE
  8
SST
 66
      1
 70
1
 40
0.0030
 41
0.0030
  0
VERTEX
  8
SST
 10
1.7935
 20
0.7180
 30
 0.0
 42
1.0
  0
VERTEX
  8
SST
 10
1.7965
 20
0.7180
 30
 0.0
 42
1.0
  0
SEQEND
  8
SST
  0
POLYLINE
  8
SST
 66
      1
 70
1
 40
0.0030
 41
0.0030
  0
VERTEX
  8
SST
 10
1.7935
 20
0.6830
 30
 0.0
 42
1.0
  0
VERTEX
  8
SST
 10
1.7965
 20
0.6830
 30
 0.0
 42
1.0
  0
SEQEND
  8
SST
  0
POLYLINE
  8
SST
 66
      1
 70
1
 40
0.0030
 41
0.0030
  0
VERTEX
  8
SST
 10
1.8035
 20
0.6830
 30
 0.0
 42
1.0
  0
VERTEX
  8
SST
 10
1.8065
 20
0.6830
 30
 0.0
 42
1.0
  0
SEQEND
  8
SST
  0
POLYLINE
  8
SST
 66
      1
 70
1
 40
0.0080
 41
0.0080
  0
VERTEX
  8
SST
 10
1.5110
 20
1.3330
 30
 0.0
 42
-0.414213562373095
  0
VERTEX
  8
SST
 10
1.3110
 20
1.5330
 30
 0.0
 42
-0.414213562373095
  0
VERTEX
  8
SST
 10
1.5110
 20
1.7330
 30
 0.0
 42
-0.414213562373095
  0
VERTEX
  8
SST
 10
1.7110
 20
1.5330
 30
 0.0
 42
-0.414213562373095
  0
VERTEX
  8
SST
 10
1.5110
 20
1.3330
 30
 0.0
 42
9.8640887983419
  0
SEQEND
  8
SST
  0
POLYLINE
  8
SST
 66
      1
 70
1
 40
0.0040
 41
0.0040
  0
VERTEX
  8
SST
 10
1.5090
 20
1.3330
 30
 0.0
 42
1.0
  0
VERTEX
  8
SST
 10
1.5130
 20
1.3330
 30
 0.0
 42
1.0
  0
SEQEND
  8
SST
  0
POLYLINE
  8
SST
 66
      1
 70
1
 40
0.0040
 41
0.0040
  0
VERTEX
  8
SST
 10
1.3090
 20
1.5330
 30
 0.0
 42
1.0
  0
VERTEX
  8
SST
 10
1.3130
 20
1.5330
 30
 0.0
 42
1.0
  0
SEQEND
  8
SST
  0
POLYLINE
  8
SST
 66
      1
 70
1
 40
0.0040
 41
0.0040
  0
VERTEX
  8
SST
 10
1.5090
 20
1.7330
 30
 0.0
 42
1.0
  0
VERTEX
  8
SST
 10
1.5130
 20
1.7330
 30
 0.0
 42
1.0
  0
SEQEND
  8
SST
  0
POLYLINE
  8
SST
 66
      1
 70
1
 40
0.0040
 41
0.0040
  0
VERTEX
  8
SST
 10
1.7090
 20
1.5330
 30
 0.0
 42
1.0
  0
VERTEX
  8
SST
 10
1.7130
 20
1.5330
 30
 0.0
 42
1.0
  0
SEQEND
  8
SST
  0
POLYLINE
  8
SST
 66
      1
 70
1
 40
0.0040
 41
0.0040
  0
VERTEX
  8
SST
 10
1.5090
 20
1.3330
 30
 0.0
 42
1.0
  0
VERTEX
  8
SST
 10
1.5130
 20
1.3330
 30
 0.0
 42
1.0
  0
SEQEND
  8
SST
  0
POLYLINE
  8
SST
 66
      1
 70
1
 40
0.0060
 41
0.0060
  0
VERTEX
  8
SST
 10
1.8470
 20
0.6750
 30
 0.0
  0
VERTEX
  8
SST
 10
1.8470
 20
0.7250
 30
 0.0
  0
VERTEX
  8
SST
 10
1.7520
 20
0.7250
 30
 0.0
  0
VERTEX
  8
SST
 10
1.7520
 20
0.6750
 30
 0.0
  0
VERTEX
  8
SST
 10
1.8470
 20
0.6750
 30
 0.0
 42
-3.239769990423757
  0
SEQEND
  8
SST
  0
POLYLINE
  8
SST
 66
      1
 70
1
 40
0.0030
 41
0.0030
  0
VERTEX
  8
SST
 10
1.8455
 20
0.6750
 30
 0.0
 42
1.0
  0
VERTEX
  8
SST
 10
1.8485
 20
0.6750
 30
 0.0
 42
1.0
  0
SEQEND
  8
SST
  0
POLYLINE
  8
SST
 66
      1
 70
1
 40
0.0030
 41
0.0030
  0
VERTEX
  8
SST
 10
1.8455
 20
0.7250
 30
 0.0
 42
1.0
  0
VERTEX
  8
SST
 10
1.8485
 20
0.7250
 30
 0.0
 42
1.0
  0
SEQEND
  8
SST
  0
POLYLINE
  8
SST
 66
      1
 70
1
 40
0.0030
 41
0.0030
  0
VERTEX
  8
SST
 10
1.7505
 20
0.7250
 30
 0.0
 42
1.0
  0
VERTEX
  8
SST
 10
1.7535
 20
0.7250
 30
 0.0
 42
1.0
  0
SEQEND
  8
SST
  0
POLYLINE
  8
SST
 66
      1
 70
1
 40
0.0030
 41
0.0030
  0
VERTEX
  8
SST
 10
1.7505
 20
0.6750
 30
 0.0
 42
1.0
  0
VERTEX
  8
SST
 10
1.7535
 20
0.6750
 30
 0.0
 42
1.0
  0
SEQEND
  8
SST
  0
POLYLINE
  8
SST
 66
      1
 70
1
 40
0.0030
 41
0.0030
  0
VERTEX
  8
SST
 10
1.8455
 20
0.6750
 30
 0.0
 42
1.0
  0
VERTEX
  8
SST
 10
1.8485
 20
0.6750
 30
 0.0
 42
1.0
  0
SEQEND
  8
SST
  0
POLYLINE
  8
SST
 66
      1
 70
1
 40
0.0060
 41
0.0060
  0
VERTEX
  8
SST
 10
1.9760
 20
1.1030
 30
 0.0
  0
VERTEX
  8
SST
 10
1.9260
 20
1.1030
 30
 0.0
  0
VERTEX
  8
SST
 10
1.9260
 20
1.0080
 30
 0.0
  0
VERTEX
  8
SST
 10
1.9760
 20
1.0080
 30
 0.0
  0
VERTEX
  8
SST
 10
1.9760
 20
1.1030
 30
 0.0
 42
-5.297351702367863
  0
SEQEND
  8
SST
  0
POLYLINE
  8
SST
 66
      1
 70
1
 40
0.0030
 41
0.0030
  0
VERTEX
  8
SST
 10
1.9745
 20
1.1030
 30
 0.0
 42
1.0
  0
VERTEX
  8
SST
 10
1.9775
 20
1.1030
 30
 0.0
 42
1.0
  0
SEQEND
  8
SST
  0
POLYLINE
  8
SST
 66
      1
 70
1
 40
0.0030
 41
0.0030
  0
VERTEX
  8
SST
 10
1.9245
 20
1.1030
 30
 0.0
 42
1.0
  0
VERTEX
  8
SST
 10
1.9275
 20
1.1030
 30
 0.0
 42
1.0
  0
SEQEND
  8
SST
  0
POLYLINE
  8
SST
 66
      1
 70
1
 40
0.0030
 41
0.0030
  0
VERTEX
  8
SST
 10
1.9245
 20
1.0080
 30
 0.0
 42
1.0
  0
VERTEX
  8
SST
 10
1.9275
 20
1.0080
 30
 0.0
 42
1.0
  0
SEQEND
  8
SST
  0
POLYLINE
  8
SST
 66
      1
 70
1
 40
0.0030
 41
0.0030
  0
VERTEX
  8
SST
 10
1.9745
 20
1.0080
 30
 0.0
 42
1.0
  0
VERTEX
  8
SST
 10
1.9775
 20
1.0080
 30
 0.0
 42
1.0
  0
SEQEND
  8
SST
  0
POLYLINE
  8
SST
 66
      1
 70
1
 40
0.0030
 41
0.0030
  0
VERTEX
  8
SST
 10
1.9745
 20
1.1030
 30
 0.0
 42
1.0
  0
VERTEX
  8
SST
 10
1.9775
 20
1.1030
 30
 0.0
 42
1.0
  0
SEQEND
  8
SST
  0
POLYLINE
  8
SST
 66
      1
 70
1
 40
0.0060
 41
0.0060
  0
VERTEX
  8
SST
 10
1.9690
 20
1.0610
 30
 0.0
  0
VERTEX
  8
SST
 10
1.9340
 20
1.0610
 30
 0.0
  0
VERTEX
  8
SST
 10
1.9340
 20
1.0510
 30
 0.0
  0
VERTEX
  8
SST
 10
1.9690
 20
1.0510
 30
 0.0
  0
VERTEX
  8
SST
 10
1.9690
 20
1.0610
 30
 0.0
 42
-4.93030115726509
  0
SEQEND
  8
SST
  0
POLYLINE
  8
SST
 66
      1
 70
1
 40
0.0030
 41
0.0030
  0
VERTEX
  8
SST
 10
1.9675
 20
1.0610
 30
 0.0
 42
1.0
  0
VERTEX
  8
SST
 10
1.9705
 20
1.0610
 30
 0.0
 42
1.0
  0
SEQEND
  8
SST
  0
POLYLINE
  8
SST
 66
      1
 70
1
 40
0.0030
 41
0.0030
  0
VERTEX
  8
SST
 10
1.9325
 20
1.0610
 30
 0.0
 42
1.0
  0
VERTEX
  8
SST
 10
1.9355
 20
1.0610
 30
 0.0
 42
1.0
  0
SEQEND
  8
SST
  0
POLYLINE
  8
SST
 66
      1
 70
1
 40
0.0030
 41
0.0030
  0
VERTEX
  8
SST
 10
1.9325
 20
1.0510
 30
 0.0
 42
1.0
  0
VERTEX
  8
SST
 10
1.9355
 20
1.0510
 30
 0.0
 42
1.0
  0
SEQEND
  8
SST
  0
POLYLINE
  8
SST
 66
      1
 70
1
 40
0.0030
 41
0.0030
  0
VERTEX
  8
SST
 10
1.9675
 20
1.0510
 30
 0.0
 42
1.0
  0
VERTEX
  8
SST
 10
1.9705
 20
1.0510
 30
 0.0
 42
1.0
  0
SEQEND
  8
SST
  0
POLYLINE
  8
SST
 66
      1
 70
1
 40
0.0030
 41
0.0030
  0
VERTEX
  8
SST
 10
1.9675
 20
1.0610
 30
 0.0
 42
1.0
  0
VERTEX
  8
SST
 10
1.9705
 20
1.0610
 30
 0.0
 42
1.0
  0
SEQEND
  8
SST
  0
POLYLINE
  8
SST
 66
      1
 70
0
 40
0.0080
 41
0.0080
  0
VERTEX
  8
SST
 10
2.1310
 20
1.4770
 30
 0.0
  0
VERTEX
  8
SST
 10
1.7460
 20
1.4770
 30
 0.0
  0
SEQEND
  8
SST
  0
POLYLINE
  8
SST
 66
      1
 70
1
 40
0.0040
 41
0.0040
  0
VERTEX
  8
SST
 10
2.1290
 20
1.4770
 30
 0.0
 42
1.0
  0
VERTEX
  8
SST
 10
2.1330
 20
1.4770
 30
 0.0
 42
1.0
  0
SEQEND
  8
SST
  0
POLYLINE
  8
SST
 66
      1
 70
1
 40
0.0040
 41
0.0040
  0
VERTEX
  8
SST
 10
1.7440
 20
1.4770
 30
 0.0
 42
1.0
  0
VERTEX
  8
SST
 10
1.7480
 20
1.4770
 30
 0.0
 42
1.0
  0
SEQEND
  8
SST
  0
POLYLINE
  8
SST
 66
      1
 70
0
 40
0.0080
 41
0.0080
  0
VERTEX
  8
SST
 10
1.8600
 20
1.5950
 30
 0.0
  0
VERTEX
  8
SST
 10
1.8090
 20
1.5950
 30
 0.0
  0
SEQEND
  8
SST
  0
POLYLINE
  8
SST
 66
      1
 70
1
 40
0.0040
 41
0.0040
  0
VERTEX
  8
SST
 10
1.8580
 20
1.5950
 30
 0.0
 42
1.0
  0
VERTEX
  8
SST
 10
1.8620
 20
1.5950
 30
 0.0
 42
1.0
  0
SEQEND
  8
SST
  0
POLYLINE
  8
SST
 66
      1
 70
1
 40
0.0040
 41
0.0040
  0
VERTEX
  8
SST
 10
1.8070
 20
1.5950
 30
 0.0
 42
1.0
  0
VERTEX
  8
SST
 10
1.8110
 20
1.5950
 30
 0.0
 42
1.0
  0
SEQEND
  8
SST
  0
POLYLINE
  8
SST
 66
      1
 70
0
 40
0.0080
 41
0.0080
  0
VERTEX
  8
SST
 10
1.8350
 20
1.5700
 30
 0.0
  0
VERTEX
  8
SST
 10
1.8350
 20
1.6230
 30
 0.0
  0
SEQEND
  8
SST
  0
POLYLINE
  8
SST
 66
      1
 70
1
 40
0.0040
 41
0.0040
  0
VERTEX
  8
SST
 10
1.8330
 20
1.5700
 30
 0.0
 42
1.0
  0
VERTEX
  8
SST
 10
1.8370
 20
1.5700
 30
 0.0
 42
1.0
  0
SEQEND
  8
SST
  0
POLYLINE
  8
SST
 66
      1
 70
1
 40
0.0040
 41
0.0040
  0
VERTEX
  8
SST
 10
1.8330
 20
1.6230
 30
 0.0
 42
1.0
  0
VERTEX
  8
SST
 10
1.8370
 20
1.6230
 30
 0.0
 42
1.0
  0
SEQEND
  8
SST
  0
POLYLINE
  8
SST
 66
      1
 70
1
 40
0.0080
 41
0.0080
  0
VERTEX
  8
SST
 10
1.9380
 20
1.3330
 30
 0.0
 42
-0.414213562373095
  0
VERTEX
  8
SST
 10
1.7380
 20
1.5330
 30
 0.0
 42
-0.414213562373095
  0
VERTEX
  8
SST
 10
1.9380
 20
1.7330
 30
 0.0
 42
-0.414213562373095
  0
VERTEX
  8
SST
 10
2.1380
 20
1.5330
 30
 0.0
 42
-0.414213562373095
  0
VERTEX
  8
SST
 10
1.9380
 20
1.3330
 30
 0.0
 42
22.41694985084864
  0
SEQEND
  8
SST
  0
POLYLINE
  8
SST
 66
      1
 70
1
 40
0.0040
 41
0.0040
  0
VERTEX
  8
SST
 10
1.9360
 20
1.3330
 30
 0.0
 42
1.0
  0
VERTEX
  8
SST
 10
1.9400
 20
1.3330
 30
 0.0
 42
1.0
  0
SEQEND
  8
SST
  0
POLYLINE
  8
SST
 66
      1
 70
1
 40
0.0040
 41
0.0040
  0
VERTEX
  8
SST
 10
1.7360
 20
1.5330
 30
 0.0
 42
1.0
  0
VERTEX
  8
SST
 10
1.7400
 20
1.5330
 30
 0.0
 42
1.0
  0
SEQEND
  8
SST
  0
POLYLINE
  8
SST
 66
      1
 70
1
 40
0.0040
 41
0.0040
  0
VERTEX
  8
SST
 10
1.9360
 20
1.7330
 30
 0.0
 42
1.0
  0
VERTEX
  8
SST
 10
1.9400
 20
1.7330
 30
 0.0
 42
1.0
  0
SEQEND
  8
SST
  0
POLYLINE
  8
SST
 66
      1
 70
1
 40
0.0040
 41
0.0040
  0
VERTEX
  8
SST
 10
2.1360
 20
1.5330
 30
 0.0
 42
1.0
  0
VERTEX
  8
SST
 10
2.1400
 20
1.5330
 30
 0.0
 42
1.0
  0
SEQEND
  8
SST
  0
POLYLINE
  8
SST
 66
      1
 70
1
 40
0.0040
 41
0.0040
  0
VERTEX
  8
SST
 10
1.9360
 20
1.3330
 30
 0.0
 42
1.0
  0
VERTEX
  8
SST
 10
1.9400
 20
1.3330
 30
 0.0
 42
1.0
  0
SEQEND
  8
SST
  0
POLYLINE
  8
SST
 66
      1
 70
1
 40
0.0060
 41
0.0060
  0
VERTEX
  8
SST
 10
1.8350
 20
1.3100
 30
 0.0
  0
VERTEX
  8
SST
 10
1.7800
 20
1.3100
 30
 0.0
  0
VERTEX
  8
SST
 10
1.7800
 20
1.2050
 30
 0.0
  0
VERTEX
  8
SST
 10
1.8350
 20
1.2050
 30
 0.0
  0
VERTEX
  8
SST
 10
1.8350
 20
1.3100
 30
 0.0
 42
-1.826699496849337
  0
SEQEND
  8
SST
  0
POLYLINE
  8
SST
 66
      1
 70
1
 40
0.0030
 41
0.0030
  0
VERTEX
  8
SST
 10
1.8335
 20
1.3100
 30
 0.0
 42
1.0
  0
VERTEX
  8
SST
 10
1.8365
 20
1.3100
 30
 0.0
 42
1.0
  0
SEQEND
  8
SST
  0
POLYLINE
  8
SST
 66
      1
 70
1
 40
0.0030
 41
0.0030
  0
VERTEX
  8
SST
 10
1.7785
 20
1.3100
 30
 0.0
 42
1.0
  0
VERTEX
  8
SST
 10
1.7815
 20
1.3100
 30
 0.0
 42
1.0
  0
SEQEND
  8
SST
  0
POLYLINE
  8
SST
 66
      1
 70
1
 40
0.0030
 41
0.0030
  0
VERTEX
  8
SST
 10
1.7785
 20
1.2050
 30
 0.0
 42
1.0
  0
VERTEX
  8
SST
 10
1.7815
 20
1.2050
 30
 0.0
 42
1.0
  0
SEQEND
  8
SST
  0
POLYLINE
  8
SST
 66
      1
 70
1
 40
0.0030
 41
0.0030
  0
VERTEX
  8
SST
 10
1.8335
 20
1.2050
 30
 0.0
 42
1.0
  0
VERTEX
  8
SST
 10
1.8365
 20
1.2050
 30
 0.0
 42
1.0
  0
SEQEND
  8
SST
  0
POLYLINE
  8
SST
 66
      1
 70
1
 40
0.0030
 41
0.0030
  0
VERTEX
  8
SST
 10
1.8335
 20
1.3100
 30
 0.0
 42
1.0
  0
VERTEX
  8
SST
 10
1.8365
 20
1.3100
 30
 0.0
 42
1.0
  0
SEQEND
  8
SST
  0
POLYLINE
  8
SST
 66
      1
 70
0
 40
0.0060
 41
0.0060
  0
VERTEX
  8
SST
 10
1.7880
 20
1.2630
 30
 0.0
  0
VERTEX
  8
SST
 10
1.8330
 20
1.2630
 30
 0.0
  0
SEQEND
  8
SST
  0
POLYLINE
  8
SST
 66
      1
 70
1
 40
0.0030
 41
0.0030
  0
VERTEX
  8
SST
 10
1.7865
 20
1.2630
 30
 0.0
 42
1.0
  0
VERTEX
  8
SST
 10
1.7895
 20
1.2630
 30
 0.0
 42
1.0
  0
SEQEND
  8
SST
  0
POLYLINE
  8
SST
 66
      1
 70
1
 40
0.0030
 41
0.0030
  0
VERTEX
  8
SST
 10
1.8315
 20
1.2630
 30
 0.0
 42
1.0
  0
VERTEX
  8
SST
 10
1.8345
 20
1.2630
 30
 0.0
 42
1.0
  0
SEQEND
  8
SST
  0
POLYLINE
  8
SST
 66
      1
 70
1
 40
0.0080
 41
0.0080
  0
VERTEX
  8
SST
 10
1.1970
 20
0.9260
 30
 0.0
  0
VERTEX
  8
SST
 10
1.1970
 20
0.4860
 30
 0.0
  0
VERTEX
  8
SST
 10
1.4770
 20
0.4860
 30
 0.0
  0
VERTEX
  8
SST
 10
1.4770
 20
0.9260
 30
 0.0
  0
VERTEX
  8
SST
 10
1.1970
 20
0.9260
 30
 0.0
 42
-1.419207788983502
  0
SEQEND
  8
SST
  0
POLYLINE
  8
SST
 66
      1
 70
1
 40
0.0040
 41
0.0040
  0
VERTEX
  8
SST
 10
1.1950
 20
0.9260
 30
 0.0
 42
1.0
  0
VERTEX
  8
SST
 10
1.1990
 20
0.9260
 30
 0.0
 42
1.0
  0
SEQEND
  8
SST
  0
POLYLINE
  8
SST
 66
      1
 70
1
 40
0.0040
 41
0.0040
  0
VERTEX
  8
SST
 10
1.1950
 20
0.4860
 30
 0.0
 42
1.0
  0
VERTEX
  8
SST
 10
1.1990
 20
0.4860
 30
 0.0
 42
1.0
  0
SEQEND
  8
SST
  0
POLYLINE
  8
SST
 66
      1
 70
1
 40
0.0040
 41
0.0040
  0
VERTEX
  8
SST
 10
1.4750
 20
0.4860
 30
 0.0
 42
1.0
  0
VERTEX
  8
SST
 10
1.4790
 20
0.4860
 30
 0.0
 42
1.0
  0
SEQEND
  8
SST
  0
POLYLINE
  8
SST
 66
      1
 70
1
 40
0.0040
 41
0.0040
  0
VERTEX
  8
SST
 10
1.4750
 20
0.9260
 30
 0.0
 42
1.0
  0
VERTEX
  8
SST
 10
1.4790
 20
0.9260
 30
 0.0
 42
1.0
  0
SEQEND
  8
SST
  0
POLYLINE
  8
SST
 66
      1
 70
1
 40
0.0040
 41
0.0040
  0
VERTEX
  8
SST
 10
1.1950
 20
0.9260
 30
 0.0
 42
1.0
  0
VERTEX
  8
SST
 10
1.1990
 20
0.9260
 30
 0.0
 42
1.0
  0
SEQEND
  8
SST
  0
POLYLINE
  8
SST
 66
      1
 70
1
 40
0.0080
 41
0.0080
  0
VERTEX
  8
SST
 10
1.1960
 20
1.7310
 30
 0.0
  0
VERTEX
  8
SST
 10
1.1960
 20
1.1510
 30
 0.0
  0
VERTEX
  8
SST
 10
1.0060
 20
1.1510
 30
 0.0
  0
VERTEX
  8
SST
 10
1.0060
 20
1.7310
 30
 0.0
  0
VERTEX
  8
SST
 10
1.1960
 20
1.7310
 30
 0.0
 42
-0.8774317692476534
  0
SEQEND
  8
SST
  0
POLYLINE
  8
SST
 66
      1
 70
1
 40
0.0040
 41
0.0040
  0
VERTEX
  8
SST
 10
1.1940
 20
1.7310
 30
 0.0
 42
1.0
  0
VERTEX
  8
SST
 10
1.1980
 20
1.7310
 30
 0.0
 42
1.0
  0
SEQEND
  8
SST
  0
POLYLINE
  8
SST
 66
      1
 70
1
 40
0.0040
 41
0.0040
  0
VERTEX
  8
SST
 10
1.1940
 20
1.1510
 30
 0.0
 42
1.0
  0
VERTEX
  8
SST
 10
1.1980
 20
1.1510
 30
 0.0
 42
1.0
  0
SEQEND
  8
SST
  0
POLYLINE
  8
SST
 66
      1
 70
1
 40
0.0040
 41
0.0040
  0
VERTEX
  8
SST
 10
1.0040
 20
1.1510
 30
 0.0
 42
1.0
  0
VERTEX
  8
SST
 10
1.0080
 20
1.1510
 30
 0.0
 42
1.0
  0
SEQEND
  8
SST
  0
POLYLINE
  8
SST
 66
      1
 70
1
 40
0.0040
 41
0.0040
  0
VERTEX
  8
SST
 10
1.0040
 20
1.7310
 30
 0.0
 42
1.0
  0
VERTEX
  8
SST
 10
1.0080
 20
1.7310
 30
 0.0
 42
1.0
  0
SEQEND
  8
SST
  0
POLYLINE
  8
SST
 66
      1
 70
1
 40
0.0040
 41
0.0040
  0
VERTEX
  8
SST
 10
1.1940
 20
1.7310
 30
 0.0
 42
1.0
  0
VERTEX
  8
SST
 10
1.1980
 20
1.7310
 30
 0.0
 42
1.0
  0
SEQEND
  8
SST
  0
POLYLINE
  8
SST
 66
      1
 70
1
 40
0.0060
 41
0.0060
  0
VERTEX
  8
SST
 10
1.8100
 20
1.2590
 30
 0.0
  0
VERTEX
  8
SST
 10
1.7880
 20
1.2500
 30
 0.0
  0
VERTEX
  8
SST
 10
1.8330
 20
1.2500
 30
 0.0
  0
VERTEX
  8
SST
 10
1.8100
 20
1.2590
 30
 0.0
  0
SEQEND
  8
SST
  0
POLYLINE
  8
SST
 66
      1
 70
1
 40
0.0030
 41
0.0030
  0
VERTEX
  8
SST
 10
1.8085
 20
1.2590
 30
 0.0
 42
1.0
  0
VERTEX
  8
SST
 10
1.8115
 20
1.2590
 30
 0.0
 42
1.0
  0
SEQEND
  8
SST
  0
POLYLINE
  8
SST
 66
      1
 70
1
 40
0.0030
 41
0.0030
  0
VERTEX
  8
SST
 10
1.7865
 20
1.2500
 30
 0.0
 42
1.0
  0
VERTEX
  8
SST
 10
1.7895
 20
1.2500
 30
 0.0
 42
1.0
  0
SEQEND
  8
SST
  0
POLYLINE
  8
SST
 66
      1
 70
1
 40
0.0030
 41
0.0030
  0
VERTEX
  8
SST
 10
1.8315
 20
1.2500
 30
 0.0
 42
1.0
  0
VERTEX
  8
SST
 10
1.8345
 20
1.2500
 30
 0.0
 42
1.0
  0
SEQEND
  8
SST
  0
POLYLINE
  8
SST
 66
      1
 70
1
 40
0.0030
 41
0.0030
  0
VERTEX
  8
SST
 10
1.8085
 20
1.2590
 30
 0.0
 42
1.0
  0
VERTEX
  8
SST
 10
1.8115
 20
1.2590
 30
 0.0
 42
1.0
  0
SEQEND
  8
SST
  0
POLYLINE
  8
SST
 66
      1
 70
1
 40
0.0060
 41
0.0060
  0
VERTEX
  8
SST
 10
1.8050
 20
0.8330
 30
 0.0
  0
VERTEX
  8
SST
 10
1.8050
 20
0.8680
 30
 0.0
  0
VERTEX
  8
SST
 10
1.7950
 20
0.8680
 30
 0.0
  0
VERTEX
  8
SST
 10
1.7950
 20
0.8330
 30
 0.0
  0
VERTEX
  8
SST
 10
1.8050
 20
0.8330
 30
 0.0
 42
-2.126120235080047
  0
SEQEND
  8
SST
  0
POLYLINE
  8
SST
 66
      1
 70
1
 40
0.0030
 41
0.0030
  0
VERTEX
  8
SST
 10
1.8035
 20
0.8330
 30
 0.0
 42
1.0
  0
VERTEX
  8
SST
 10
1.8065
 20
0.8330
 30
 0.0
 42
1.0
  0
SEQEND
  8
SST
  0
POLYLINE
  8
SST
 66
      1
 70
1
 40
0.0030
 41
0.0030
  0
VERTEX
  8
SST
 10
1.8035
 20
0.8680
 30
 0.0
 42
1.0
  0
VERTEX
  8
SST
 10
1.8065
 20
0.8680
 30
 0.0
 42
1.0
  0
SEQEND
  8
SST
  0
POLYLINE
  8
SST
 66
      1
 70
1
 40
0.0030
 41
0.0030
  0
VERTEX
  8
SST
 10
1.7935
 20
0.8680
 30
 0.0
 42
1.0
  0
VERTEX
  8
SST
 10
1.7965
 20
0.8680
 30
 0.0
 42
1.0
  0
SEQEND
  8
SST
  0
POLYLINE
  8
SST
 66
      1
 70
1
 40
0.0030
 41
0.0030
  0
VERTEX
  8
SST
 10
1.7935
 20
0.8330
 30
 0.0
 42
1.0
  0
VERTEX
  8
SST
 10
1.7965
 20
0.8330
 30
 0.0
 42
1.0
  0
SEQEND
  8
SST
  0
POLYLINE
  8
SST
 66
      1
 70
1
 40
0.0030
 41
0.0030
  0
VERTEX
  8
SST
 10
1.8035
 20
0.8330
 30
 0.0
 42
1.0
  0
VERTEX
  8
SST
 10
1.8065
 20
0.8330
 30
 0.0
 42
1.0
  0
SEQEND
  8
SST
  0
POLYLINE
  8
SST
 66
      1
 70
1
 40
0.0060
 41
0.0060
  0
VERTEX
  8
SST
 10
1.8470
 20
0.8250
 30
 0.0
  0
VERTEX
  8
SST
 10
1.8470
 20
0.8750
 30
 0.0
  0
VERTEX
  8
SST
 10
1.7520
 20
0.8750
 30
 0.0
  0
VERTEX
  8
SST
 10
1.7520
 20
0.8250
 30
 0.0
  0
VERTEX
  8
SST
 10
1.8470
 20
0.8250
 30
 0.0
 42
-2.21155993983143
  0
SEQEND
  8
SST
  0
POLYLINE
  8
SST
 66
      1
 70
1
 40
0.0030
 41
0.0030
  0
VERTEX
  8
SST
 10
1.8455
 20
0.8250
 30
 0.0
 42
1.0
  0
VERTEX
  8
SST
 10
1.8485
 20
0.8250
 30
 0.0
 42
1.0
  0
SEQEND
  8
SST
  0
POLYLINE
  8
SST
 66
      1
 70
1
 40
0.0030
 41
0.0030
  0
VERTEX
  8
SST
 10
1.8455
 20
0.8750
 30
 0.0
 42
1.0
  0
VERTEX
  8
SST
 10
1.8485
 20
0.8750
 30
 0.0
 42
1.0
  0
SEQEND
  8
SST
  0
POLYLINE
  8
SST
 66
      1
 70
1
 40
0.0030
 41
0.0030
  0
VERTEX
  8
SST
 10
1.7505
 20
0.8750
 30
 0.0
 42
1.0
  0
VERTEX
  8
SST
 10
1.7535
 20
0.8750
 30
 0.0
 42
1.0
  0
SEQEND
  8
SST
  0
POLYLINE
  8
SST
 66
      1
 70
1
 40
0.0030
 41
0.0030
  0
VERTEX
  8
SST
 10
1.7505
 20
0.8250
 30
 0.0
 42
1.0
  0
VERTEX
  8
SST
 10
1.7535
 20
0.8250
 30
 0.0
 42
1.0
  0
SEQEND
  8
SST
  0
POLYLINE
  8
SST
 66
      1
 70
1
 40
0.0030
 41
0.0030
  0
VERTEX
  8
SST
 10
1.8455
 20
0.8250
 30
 0.0
 42
1.0
  0
VERTEX
  8
SST
 10
1.8485
 20
0.8250
 30
 0.0
 42
1.0
  0
SEQEND
  8
SST
  0
POLYLINE
  8
SST
 66
      1
 70
1
 40
0.0060
 41
0.0060
  0
VERTEX
  8
SST
 10
1.8050
 20
0.7830
 30
 0.0
  0
VERTEX
  8
SST
 10
1.8050
 20
0.8180
 30
 0.0
  0
VERTEX
  8
SST
 10
1.7950
 20
0.8180
 30
 0.0
  0
VERTEX
  8
SST
 10
1.7950
 20
0.7830
 30
 0.0
  0
VERTEX
  8
SST
 10
1.8050
 20
0.7830
 30
 0.0
 42
-2.143141725864063
  0
SEQEND
  8
SST
  0
POLYLINE
  8
SST
 66
      1
 70
1
 40
0.0030
 41
0.0030
  0
VERTEX
  8
SST
 10
1.8035
 20
0.7830
 30
 0.0
 42
1.0
  0
VERTEX
  8
SST
 10
1.8065
 20
0.7830
 30
 0.0
 42
1.0
  0
SEQEND
  8
SST
  0
POLYLINE
  8
SST
 66
      1
 70
1
 40
0.0030
 41
0.0030
  0
VERTEX
  8
SST
 10
1.8035
 20
0.8180
 30
 0.0
 42
1.0
  0
VERTEX
  8
SST
 10
1.8065
 20
0.8180
 30
 0.0
 42
1.0
  0
SEQEND
  8
SST
  0
POLYLINE
  8
SST
 66
      1
 70
1
 40
0.0030
 41
0.0030
  0
VERTEX
  8
SST
 10
1.7935
 20
0.8180
 30
 0.0
 42
1.0
  0
VERTEX
  8
SST
 10
1.7965
 20
0.8180
 30
 0.0
 42
1.0
  0
SEQEND
  8
SST
  0
POLYLINE
  8
SST
 66
      1
 70
1
 40
0.0030
 41
0.0030
  0
VERTEX
  8
SST
 10
1.7935
 20
0.7830
 30
 0.0
 42
1.0
  0
VERTEX
  8
SST
 10
1.7965
 20
0.7830
 30
 0.0
 42
1.0
  0
SEQEND
  8
SST
  0
POLYLINE
  8
SST
 66
      1
 70
1
 40
0.0030
 41
0.0030
  0
VERTEX
  8
SST
 10
1.8035
 20
0.7830
 30
 0.0
 42
1.0
  0
VERTEX
  8
SST
 10
1.8065
 20
0.7830
 30
 0.0
 42
1.0
  0
SEQEND
  8
SST
  0
POLYLINE
  8
SST
 66
      1
 70
1
 40
0.0060
 41
0.0060
  0
VERTEX
  8
SST
 10
1.8470
 20
0.7750
 30
 0.0
  0
VERTEX
  8
SST
 10
1.8470
 20
0.8250
 30
 0.0
  0
VERTEX
  8
SST
 10
1.7520
 20
0.8250
 30
 0.0
  0
VERTEX
  8
SST
 10
1.7520
 20
0.7750
 30
 0.0
  0
VERTEX
  8
SST
 10
1.8470
 20
0.7750
 30
 0.0
 42
-2.223913369531543
  0
SEQEND
  8
SST
  0
POLYLINE
  8
SST
 66
      1
 70
1
 40
0.0030
 41
0.0030
  0
VERTEX
  8
SST
 10
1.8455
 20
0.7750
 30
 0.0
 42
1.0
  0
VERTEX
  8
SST
 10
1.8485
 20
0.7750
 30
 0.0
 42
1.0
  0
SEQEND
  8
SST
  0
POLYLINE
  8
SST
 66
      1
 70
1
 40
0.0030
 41
0.0030
  0
VERTEX
  8
SST
 10
1.8455
 20
0.8250
 30
 0.0
 42
1.0
  0
VERTEX
  8
SST
 10
1.8485
 20
0.8250
 30
 0.0
 42
1.0
  0
SEQEND
  8
SST
  0
POLYLINE
  8
SST
 66
      1
 70
1
 40
0.0030
 41
0.0030
  0
VERTEX
  8
SST
 10
1.7505
 20
0.8250
 30
 0.0
 42
1.0
  0
VERTEX
  8
SST
 10
1.7535
 20
0.8250
 30
 0.0
 42
1.0
  0
SEQEND
  8
SST
  0
POLYLINE
  8
SST
 66
      1
 70
1
 40
0.0030
 41
0.0030
  0
VERTEX
  8
SST
 10
1.7505
 20
0.7750
 30
 0.0
 42
1.0
  0
VERTEX
  8
SST
 10
1.7535
 20
0.7750
 30
 0.0
 42
1.0
  0
SEQEND
  8
SST
  0
POLYLINE
  8
SST
 66
      1
 70
1
 40
0.0030
 41
0.0030
  0
VERTEX
  8
SST
 10
1.8455
 20
0.7750
 30
 0.0
 42
1.0
  0
VERTEX
  8
SST
 10
1.8485
 20
0.7750
 30
 0.0
 42
1.0
  0
SEQEND
  8
SST
  0
POLYLINE
  8
SST
 66
      1
 70
1
 40
0.0080
 41
0.0080
  0
VERTEX
  8
SST
 10
1.6670
 20
0.7790
 30
 0.0
  0
VERTEX
  8
SST
 10
1.6670
 20
0.8120
 30
 0.0
  0
VERTEX
  8
SST
 10
1.6370
 20
0.8120
 30
 0.0
  0
VERTEX
  8
SST
 10
1.6370
 20
0.7790
 30
 0.0
  0
VERTEX
  8
SST
 10
1.6670
 20
0.7790
 30
 0.0
 42
-1.925713072005507
  0
SEQEND
  8
SST
  0
POLYLINE
  8
SST
 66
      1
 70
1
 40
0.0040
 41
0.0040
  0
VERTEX
  8
SST
 10
1.6650
 20
0.7790
 30
 0.0
 42
1.0
  0
VERTEX
  8
SST
 10
1.6690
 20
0.7790
 30
 0.0
 42
1.0
  0
SEQEND
  8
SST
  0
POLYLINE
  8
SST
 66
      1
 70
1
 40
0.0040
 41
0.0040
  0
VERTEX
  8
SST
 10
1.6650
 20
0.8120
 30
 0.0
 42
1.0
  0
VERTEX
  8
SST
 10
1.6690
 20
0.8120
 30
 0.0
 42
1.0
  0
SEQEND
  8
SST
  0
POLYLINE
  8
SST
 66
      1
 70
1
 40
0.0040
 41
0.0040
  0
VERTEX
  8
SST
 10
1.6350
 20
0.8120
 30
 0.0
 42
1.0
  0
VERTEX
  8
SST
 10
1.6390
 20
0.8120
 30
 0.0
 42
1.0
  0
SEQEND
  8
SST
  0
POLYLINE
  8
SST
 66
      1
 70
1
 40
0.0040
 41
0.0040
  0
VERTEX
  8
SST
 10
1.6350
 20
0.7790
 30
 0.0
 42
1.0
  0
VERTEX
  8
SST
 10
1.6390
 20
0.7790
 30
 0.0
 42
1.0
  0
SEQEND
  8
SST
  0
POLYLINE
  8
SST
 66
      1
 70
1
 40
0.0040
 41
0.0040
  0
VERTEX
  8
SST
 10
1.6650
 20
0.7790
 30
 0.0
 42
1.0
  0
VERTEX
  8
SST
 10
1.6690
 20
0.7790
 30
 0.0
 42
1.0
  0
SEQEND
  8
SST
  0
POLYLINE
  8
SST
 66
      1
 70
1
 40
0.0080
 41
0.0080
  0
VERTEX
  8
SST
 10
1.5430
 20
0.7790
 30
 0.0
  0
VERTEX
  8
SST
 10
1.5430
 20
0.8970
 30
 0.0
  0
VERTEX
  8
SST
 10
1.6660
 20
0.8970
 30
 0.0
  0
VERTEX
  8
SST
 10
1.6660
 20
0.7790
 30
 0.0
  0
VERTEX
  8
SST
 10
1.5430
 20
0.7790
 30
 0.0
 42
-1.773830585477691
  0
SEQEND
  8
SST
  0
POLYLINE
  8
SST
 66
      1
 70
1
 40
0.0040
 41
0.0040
  0
VERTEX
  8
SST
 10
1.5410
 20
0.7790
 30
 0.0
 42
1.0
  0
VERTEX
  8
SST
 10
1.5450
 20
0.7790
 30
 0.0
 42
1.0
  0
SEQEND
  8
SST
  0
POLYLINE
  8
SST
 66
      1
 70
1
 40
0.0040
 41
0.0040
  0
VERTEX
  8
SST
 10
1.5410
 20
0.8970
 30
 0.0
 42
1.0
  0
VERTEX
  8
SST
 10
1.5450
 20
0.8970
 30
 0.0
 42
1.0
  0
SEQEND
  8
SST
  0
POLYLINE
  8
SST
 66
      1
 70
1
 40
0.0040
 41
0.0040
  0
VERTEX
  8
SST
 10
1.6640
 20
0.8970
 30
 0.0
 42
1.0
  0
VERTEX
  8
SST
 10
1.6680
 20
0.8970
 30
 0.0
 42
1.0
  0
SEQEND
  8
SST
  0
POLYLINE
  8
SST
 66
      1
 70
1
 40
0.0040
 41
0.0040
  0
VERTEX
  8
SST
 10
1.6640
 20
0.7790
 30
 0.0
 42
1.0
  0
VERTEX
  8
SST
 10
1.6680
 20
0.7790
 30
 0.0
 42
1.0
  0
SEQEND
  8
SST
  0
POLYLINE
  8
SST
 66
      1
 70
1
 40
0.0040
 41
0.0040
  0
VERTEX
  8
SST
 10
1.5410
 20
0.7790
 30
 0.0
 42
1.0
  0
VERTEX
  8
SST
 10
1.5450
 20
0.7790
 30
 0.0
 42
1.0
  0
SEQEND
  8
SST
  0
POLYLINE
  8
0
 66
      1
 70
0
 40
0.0040
 41
0.0040
  0
VERTEX
  8
0
 10
0.3660
 20
0.4440
 30
 0.0
  0
VERTEX
  8
0
 10
0.3860
 20
0.3850
 30
 0.0
  0
VERTEX
  8
0
 10
0.4050
 20
0.4440
 30
 0.0
  0
SEQEND
  8
0
  0
POLYLINE
  8
0
 66
      1
 70
1
 40
0.0020
 41
0.0020
  0
VERTEX
  8
0
 10
0.3650
 20
0.4440
 30
 0.0
 42
1.0
  0
VERTEX
  8
0
 10
0.3670
 20
0.4440
 30
 0.0
 42
1.0
  0
SEQEND
  8
0
  0
POLYLINE
  8
0
 66
      1
 70
1
 40
0.0020
 41
0.0020
  0
VERTEX
  8
0
 10
0.3850
 20
0.3850
 30
 0.0
 42
1.0
  0
VERTEX
  8
0
 10
0.3870
 20
0.3850
 30
 0.0
 42
1.0
  0
SEQEND
  8
0
  0
POLYLINE
  8
0
 66
      1
 70
1
 40
0.0020
 41
0.0020
  0
VERTEX
  8
0
 10
0.4040
 20
0.4440
 30
 0.0
 42
1.0
  0
VERTEX
  8
0
 10
0.4060
 20
0.4440
 30
 0.0
 42
1.0
  0
SEQEND
  8
0
  0
POLYLINE
  8
0
 66
      1
 70
0
 40
0.0040
 41
0.0040
  0
VERTEX
  8
0
 10
0.3860
 20
0.3850
 30
 0.0
  0
VERTEX
  8
0
 10
0.3860
 20
0.3280
 30
 0.0
  0
SEQEND
  8
0
  0
POLYLINE
  8
0
 66
      1
 70
1
 40
0.0020
 41
0.0020
  0
VERTEX
  8
0
 10
0.3850
 20
0.3850
 30
 0.0
 42
1.0
  0
VERTEX
  8
0
 10
0.3870
 20
0.3850
 30
 0.0
 42
1.0
  0
SEQEND
  8
0
  0
POLYLINE
  8
0
 66
      1
 70
1
 40
0.0020
 41
0.0020
  0
VERTEX
  8
0
 10
0.3850
 20
0.3280
 30
 0.0
 42
1.0
  0
VERTEX
  8
0
 10
0.3870
 20
0.3280
 30
 0.0
 42
1.0
  0
SEQEND
  8
0
  0
POLYLINE
  8
0
 66
      1
 70
0
 40
0.0040
 41
0.0040
  0
VERTEX
  8
0
 10
0.2680
 20
0.3850
 30
 0.0
  0
VERTEX
  8
0
 10
0.5040
 20
0.3850
 30
 0.0
  0
SEQEND
  8
0
  0
POLYLINE
  8
0
 66
      1
 70
1
 40
0.0020
 41
0.0020
  0
VERTEX
  8
0
 10
0.2670
 20
0.3850
 30
 0.0
 42
1.0
  0
VERTEX
  8
0
 10
0.2690
 20
0.3850
 30
 0.0
 42
1.0
  0
SEQEND
  8
0
  0
POLYLINE
  8
0
 66
      1
 70
1
 40
0.0020
 41
0.0020
  0
VERTEX
  8
0
 10
0.5030
 20
0.3850
 30
 0.0
 42
1.0
  0
VERTEX
  8
0
 10
0.5050
 20
0.3850
 30
 0.0
 42
1.0
  0
SEQEND
  8
0
  0
POLYLINE
  8
0
 66
      1
 70
0
 40
0.0040
 41
0.0040
  0
VERTEX
  8
0
 10
0.4050
 20
0.4800
 30
 0.0
  0
VERTEX
  8
0
 10
0.3860
 20
0.5390
 30
 0.0
  0
VERTEX
  8
0
 10
0.3660
 20
0.4800
 30
 0.0
  0
SEQEND
  8
0
  0
POLYLINE
  8
0
 66
      1
 70
1
 40
0.0020
 41
0.0020
  0
VERTEX
  8
0
 10
0.4040
 20
0.4800
 30
 0.0
 42
1.0
  0
VERTEX
  8
0
 10
0.4060
 20
0.4800
 30
 0.0
 42
1.0
  0
SEQEND
  8
0
  0
POLYLINE
  8
0
 66
      1
 70
1
 40
0.0020
 41
0.0020
  0
VERTEX
  8
0
 10
0.3850
 20
0.5390
 30
 0.0
 42
1.0
  0
VERTEX
  8
0
 10
0.3870
 20
0.5390
 30
 0.0
 42
1.0
  0
SEQEND
  8
0
  0
POLYLINE
  8
0
 66
      1
 70
1
 40
0.0020
 41
0.0020
  0
VERTEX
  8
0
 10
0.3650
 20
0.4800
 30
 0.0
 42
1.0
  0
VERTEX
  8
0
 10
0.3670
 20
0.4800
 30
 0.0
 42
1.0
  0
SEQEND
  8
0
  0
POLYLINE
  8
0
 66
      1
 70
0
 40
0.0040
 41
0.0040
  0
VERTEX
  8
0
 10
0.3860
 20
0.5390
 30
 0.0
  0
VERTEX
  8
0
 10
0.3860
 20
0.5970
 30
 0.0
  0
SEQEND
  8
0
  0
POLYLINE
  8
0
 66
      1
 70
1
 40
0.0020
 41
0.0020
  0
VERTEX
  8
0
 10
0.3850
 20
0.5390
 30
 0.0
 42
1.0
  0
VERTEX
  8
0
 10
0.3870
 20
0.5390
 30
 0.0
 42
1.0
  0
SEQEND
  8
0
  0
POLYLINE
  8
0
 66
      1
 70
1
 40
0.0020
 41
0.0020
  0
VERTEX
  8
0
 10
0.3850
 20
0.5970
 30
 0.0
 42
1.0
  0
VERTEX
  8
0
 10
0.3870
 20
0.5970
 30
 0.0
 42
1.0
  0
SEQEND
  8
0
  0
POLYLINE
  8
0
 66
      1
 70
0
 40
0.0040
 41
0.0040
  0
VERTEX
  8
0
 10
0.2680
 20
0.5390
 30
 0.0
  0
VERTEX
  8
0
 10
0.5040
 20
0.5390
 30
 0.0
  0
SEQEND
  8
0
  0
POLYLINE
  8
0
 66
      1
 70
1
 40
0.0020
 41
0.0020
  0
VERTEX
  8
0
 10
0.2670
 20
0.5390
 30
 0.0
 42
1.0
  0
VERTEX
  8
0
 10
0.2690
 20
0.5390
 30
 0.0
 42
1.0
  0
SEQEND
  8
0
  0
POLYLINE
  8
0
 66
      1
 70
1
 40
0.0020
 41
0.0020
  0
VERTEX
  8
0
 10
0.5030
 20
0.5390
 30
 0.0
 42
1.0
  0
VERTEX
  8
0
 10
0.5050
 20
0.5390
 30
 0.0
 42
1.0
  0
SEQEND
  8
0
  0
POLYLINE
  8
0
 66
      1
 70
0
 40
0.0040
 41
0.0040
  0
VERTEX
  8
0
 10
0.6340
 20
0.1400
 30
 0.0
  0
VERTEX
  8
0
 10
0.5740
 20
0.1200
 30
 0.0
  0
VERTEX
  8
0
 10
0.6340
 20
0.1000
 30
 0.0
  0
SEQEND
  8
0
  0
POLYLINE
  8
0
 66
      1
 70
1
 40
0.0020
 41
0.0020
  0
VERTEX
  8
0
 10
0.6330
 20
0.1400
 30
 0.0
 42
1.0
  0
VERTEX
  8
0
 10
0.6350
 20
0.1400
 30
 0.0
 42
1.0
  0
SEQEND
  8
0
  0
POLYLINE
  8
0
 66
      1
 70
1
 40
0.0020
 41
0.0020
  0
VERTEX
  8
0
 10
0.5730
 20
0.1200
 30
 0.0
 42
1.0
  0
VERTEX
  8
0
 10
0.5750
 20
0.1200
 30
 0.0
 42
1.0
  0
SEQEND
  8
0
  0
POLYLINE
  8
0
 66
      1
 70
1
 40
0.0020
 41
0.0020
  0
VERTEX
  8
0
 10
0.6330
 20
0.1000
 30
 0.0
 42
1.0
  0
VERTEX
  8
0
 10
0.6350
 20
0.1000
 30
 0.0
 42
1.0
  0
SEQEND
  8
0
  0
POLYLINE
  8
0
 66
      1
 70
0
 40
0.0040
 41
0.0040
  0
VERTEX
  8
0
 10
0.5740
 20
0.1200
 30
 0.0
  0
VERTEX
  8
0
 10
1.4750
 20
0.1200
 30
 0.0
  0
SEQEND
  8
0
  0
POLYLINE
  8
0
 66
      1
 70
1
 40
0.0020
 41
0.0020
  0
VERTEX
  8
0
 10
0.5730
 20
0.1200
 30
 0.0
 42
1.0
  0
VERTEX
  8
0
 10
0.5750
 20
0.1200
 30
 0.0
 42
1.0
  0
SEQEND
  8
0
  0
POLYLINE
  8
0
 66
      1
 70
1
 40
0.0020
 41
0.0020
  0
VERTEX
  8
0
 10
1.4740
 20
0.1200
 30
 0.0
 42
1.0
  0
VERTEX
  8
0
 10
1.4760
 20
0.1200
 30
 0.0
 42
1.0
  0
SEQEND
  8
0
  0
POLYLINE
  8
0
 66
      1
 70
0
 40
0.0040
 41
0.0040
  0
VERTEX
  8
0
 10
0.5740
 20
0.2380
 30
 0.0
  0
VERTEX
  8
0
 10
0.5740
 20
0.0020
 30
 0.0
  0
SEQEND
  8
0
  0
POLYLINE
  8
0
 66
      1
 70
1
 40
0.0020
 41
0.0020
  0
VERTEX
  8
0
 10
0.5730
 20
0.2380
 30
 0.0
 42
1.0
  0
VERTEX
  8
0
 10
0.5750
 20
0.2380
 30
 0.0
 42
1.0
  0
SEQEND
  8
0
  0
POLYLINE
  8
0
 66
      1
 70
1
 40
0.0020
 41
0.0020
  0
VERTEX
  8
0
 10
0.5730
 20
0.0020
 30
 0.0
 42
1.0
  0
VERTEX
  8
0
 10
0.5750
 20
0.0020
 30
 0.0
 42
1.0
  0
SEQEND
  8
0
  0
POLYLINE
  8
0
 66
      1
 70
0
 40
0.0040
 41
0.0040
  0
VERTEX
  8
0
 10
2.6410
 20
0.1000
 30
 0.0
  0
VERTEX
  8
0
 10
2.7000
 20
0.1200
 30
 0.0
  0
VERTEX
  8
0
 10
2.6410
 20
0.1400
 30
 0.0
  0
SEQEND
  8
0
  0
POLYLINE
  8
0
 66
      1
 70
1
 40
0.0020
 41
0.0020
  0
VERTEX
  8
0
 10
2.6400
 20
0.1000
 30
 0.0
 42
1.0
  0
VERTEX
  8
0
 10
2.6420
 20
0.1000
 30
 0.0
 42
1.0
  0
SEQEND
  8
0
  0
POLYLINE
  8
0
 66
      1
 70
1
 40
0.0020
 41
0.0020
  0
VERTEX
  8
0
 10
2.6990
 20
0.1200
 30
 0.0
 42
1.0
  0
VERTEX
  8
0
 10
2.7010
 20
0.1200
 30
 0.0
 42
1.0
  0
SEQEND
  8
0
  0
POLYLINE
  8
0
 66
      1
 70
1
 40
0.0020
 41
0.0020
  0
VERTEX
  8
0
 10
2.6400
 20
0.1400
 30
 0.0
 42
1.0
  0
VERTEX
  8
0
 10
2.6420
 20
0.1400
 30
 0.0
 42
1.0
  0
SEQEND
  8
0
  0
POLYLINE
  8
0
 66
      1
 70
0
 40
0.0040
 41
0.0040
  0
VERTEX
  8
0
 10
2.7000
 20
0.1200
 30
 0.0
  0
VERTEX
  8
0
 10
1.8000
 20
0.1200
 30
 0.0
  0
SEQEND
  8
0
  0
POLYLINE
  8
0
 66
      1
 70
1
 40
0.0020
 41
0.0020
  0
VERTEX
  8
0
 10
2.6990
 20
0.1200
 30
 0.0
 42
1.0
  0
VERTEX
  8
0
 10
2.7010
 20
0.1200
 30
 0.0
 42
1.0
  0
SEQEND
  8
0
  0
POLYLINE
  8
0
 66
      1
 70
1
 40
0.0020
 41
0.0020
  0
VERTEX
  8
0
 10
1.7990
 20
0.1200
 30
 0.0
 42
1.0
  0
VERTEX
  8
0
 10
1.8010
 20
0.1200
 30
 0.0
 42
1.0
  0
SEQEND
  8
0
  0
POLYLINE
  8
0
 66
      1
 70
0
 40
0.0040
 41
0.0040
  0
VERTEX
  8
0
 10
2.7000
 20
0.2380
 30
 0.0
  0
VERTEX
  8
0
 10
2.7000
 20
0.0020
 30
 0.0
  0
SEQEND
  8
0
  0
POLYLINE
  8
0
 66
      1
 70
1
 40
0.0020
 41
0.0020
  0
VERTEX
  8
0
 10
2.6990
 20
0.2380
 30
 0.0
 42
1.0
  0
VERTEX
  8
0
 10
2.7010
 20
0.2380
 30
 0.0
 42
1.0
  0
SEQEND
  8
0
  0
POLYLINE
  8
0
 66
      1
 70
1
 40
0.0020
 41
0.0020
  0
VERTEX
  8
0
 10
2.6990
 20
0.0020
 30
 0.0
 42
1.0
  0
VERTEX
  8
0
 10
2.7010
 20
0.0020
 30
 0.0
 42
1.0
  0
SEQEND
  8
0
  0
POLYLINE
  8
0
 66
      1
 70
0
 40
0.0040
 41
0.0040
  0
VERTEX
  8
0
 10
0.1000
 20
0.4440
 30
 0.0
  0
VERTEX
  8
0
 10
0.1200
 20
0.3850
 30
 0.0
  0
VERTEX
  8
0
 10
0.1400
 20
0.4440
 30
 0.0
  0
SEQEND
  8
0
  0
POLYLINE
  8
0
 66
      1
 70
1
 40
0.0020
 41
0.0020
  0
VERTEX
  8
0
 10
0.0990
 20
0.4440
 30
 0.0
 42
1.0
  0
VERTEX
  8
0
 10
0.1010
 20
0.4440
 30
 0.0
 42
1.0
  0
SEQEND
  8
0
  0
POLYLINE
  8
0
 66
      1
 70
1
 40
0.0020
 41
0.0020
  0
VERTEX
  8
0
 10
0.1190
 20
0.3850
 30
 0.0
 42
1.0
  0
VERTEX
  8
0
 10
0.1210
 20
0.3850
 30
 0.0
 42
1.0
  0
SEQEND
  8
0
  0
POLYLINE
  8
0
 66
      1
 70
1
 40
0.0020
 41
0.0020
  0
VERTEX
  8
0
 10
0.1390
 20
0.4440
 30
 0.0
 42
1.0
  0
VERTEX
  8
0
 10
0.1410
 20
0.4440
 30
 0.0
 42
1.0
  0
SEQEND
  8
0
  0
POLYLINE
  8
0
 66
      1
 70
0
 40
0.0040
 41
0.0040
  0
VERTEX
  8
0
 10
0.1200
 20
0.3850
 30
 0.0
  0
VERTEX
  8
0
 10
0.1200
 20
0.8710
 30
 0.0
  0
SEQEND
  8
0
  0
POLYLINE
  8
0
 66
      1
 70
1
 40
0.0020
 41
0.0020
  0
VERTEX
  8
0
 10
0.1190
 20
0.3850
 30
 0.0
 42
1.0
  0
VERTEX
  8
0
 10
0.1210
 20
0.3850
 30
 0.0
 42
1.0
  0
SEQEND
  8
0
  0
POLYLINE
  8
0
 66
      1
 70
1
 40
0.0020
 41
0.0020
  0
VERTEX
  8
0
 10
0.1190
 20
0.8710
 30
 0.0
 42
1.0
  0
VERTEX
  8
0
 10
0.1210
 20
0.8710
 30
 0.0
 42
1.0
  0
SEQEND
  8
0
  0
POLYLINE
  8
0
 66
      1
 70
0
 40
0.0040
 41
0.0040
  0
VERTEX
  8
0
 10
0.0020
 20
0.3850
 30
 0.0
  0
VERTEX
  8
0
 10
0.2380
 20
0.3850
 30
 0.0
  0
SEQEND
  8
0
  0
POLYLINE
  8
0
 66
      1
 70
1
 40
0.0020
 41
0.0020
  0
VERTEX
  8
0
 10
0.0010
 20
0.3850
 30
 0.0
 42
1.0
  0
VERTEX
  8
0
 10
0.0030
 20
0.3850
 30
 0.0
 42
1.0
  0
SEQEND
  8
0
  0
POLYLINE
  8
0
 66
      1
 70
1
 40
0.0020
 41
0.0020
  0
VERTEX
  8
0
 10
0.2370
 20
0.3850
 30
 0.0
 42
1.0
  0
VERTEX
  8
0
 10
0.2390
 20
0.3850
 30
 0.0
 42
1.0
  0
SEQEND
  8
0
  0
POLYLINE
  8
0
 66
      1
 70
0
 40
0.0040
 41
0.0040
  0
VERTEX
  8
0
 10
0.1400
 20
1.6220
 30
 0.0
  0
VERTEX
  8
0
 10
0.1200
 20
1.6810
 30
 0.0
  0
VERTEX
  8
0
 10
0.1000
 20
1.6220
 30
 0.0
  0
SEQEND
  8
0
  0
POLYLINE
  8
0
 66
      1
 70
1
 40
0.0020
 41
0.0020
  0
VERTEX
  8
0
 10
0.1390
 20
1.6220
 30
 0.0
 42
1.0
  0
VERTEX
  8
0
 10
0.1410
 20
1.6220
 30
 0.0
 42
1.0
  0
SEQEND
  8
0
  0
POLYLINE
  8
0
 66
      1
 70
1
 40
0.0020
 41
0.0020
  0
VERTEX
  8
0
 10
0.1190
 20
1.6810
 30
 0.0
 42
1.0
  0
VERTEX
  8
0
 10
0.1210
 20
1.6810
 30
 0.0
 42
1.0
  0
SEQEND
  8
0
  0
POLYLINE
  8
0
 66
      1
 70
1
 40
0.0020
 41
0.0020
  0
VERTEX
  8
0
 10
0.0990
 20
1.6220
 30
 0.0
 42
1.0
  0
VERTEX
  8
0
 10
0.1010
 20
1.6220
 30
 0.0
 42
1.0
  0
SEQEND
  8
0
  0
POLYLINE
  8
0
 66
      1
 70
0
 40
0.0040
 41
0.0040
  0
VERTEX
  8
0
 10
0.1200
 20
1.6810
 30
 0.0
  0
VERTEX
  8
0
 10
0.1200
 20
1.1960
 30
 0.0
  0
SEQEND
  8
0
  0
POLYLINE
  8
0
 66
      1
 70
1
 40
0.0020
 41
0.0020
  0
VERTEX
  8
0
 10
0.1190
 20
1.6810
 30
 0.0
 42
1.0
  0
VERTEX
  8
0
 10
0.1210
 20
1.6810
 30
 0.0
 42
1.0
  0
SEQEND
  8
0
  0
POLYLINE
  8
0
 66
      1
 70
1
 40
0.0020
 41
0.0020
  0
VERTEX
  8
0
 10
0.1190
 20
1.1960
 30
 0.0
 42
1.0
  0
VERTEX
  8
0
 10
0.1210
 20
1.1960
 30
 0.0
 42
1.0
  0
SEQEND
  8
0
  0
POLYLINE
  8
0
 66
      1
 70
0
 40
0.0040
 41
0.0040
  0
VERTEX
  8
0
 10
0.0020
 20
1.6810
 30
 0.0
  0
VERTEX
  8
0
 10
0.2380
 20
1.6810
 30
 0.0
  0
SEQEND
  8
0
  0
POLYLINE
  8
0
 66
      1
 70
1
 40
0.0020
 41
0.0020
  0
VERTEX
  8
0
 10
0.0010
 20
1.6810
 30
 0.0
 42
1.0
  0
VERTEX
  8
0
 10
0.0030
 20
1.6810
 30
 0.0
 42
1.0
  0
SEQEND
  8
0
  0
POLYLINE
  8
0
 66
      1
 70
1
 40
0.0020
 41
0.0020
  0
VERTEX
  8
0
 10
0.2370
 20
1.6810
 30
 0.0
 42
1.0
  0
VERTEX
  8
0
 10
0.2390
 20
1.6810
 30
 0.0
 42
1.0
  0
SEQEND
  8
0
  0
POLYLINE
  8
0
 66
      1
 70
0
 40
0.0040
 41
0.0040
  0
VERTEX
  8
0
 10
0.6340
 20
0.3060
 30
 0.0
  0
VERTEX
  8
0
 10
0.5740
 20
0.2860
 30
 0.0
  0
VERTEX
  8
0
 10
0.6340
 20
0.2670
 30
 0.0
  0
SEQEND
  8
0
  0
POLYLINE
  8
0
 66
      1
 70
1
 40
0.0020
 41
0.0020
  0
VERTEX
  8
0
 10
0.6330
 20
0.3060
 30
 0.0
 42
1.0
  0
VERTEX
  8
0
 10
0.6350
 20
0.3060
 30
 0.0
 42
1.0
  0
SEQEND
  8
0
  0
POLYLINE
  8
0
 66
      1
 70
1
 40
0.0020
 41
0.0020
  0
VERTEX
  8
0
 10
0.5730
 20
0.2860
 30
 0.0
 42
1.0
  0
VERTEX
  8
0
 10
0.5750
 20
0.2860
 30
 0.0
 42
1.0
  0
SEQEND
  8
0
  0
POLYLINE
  8
0
 66
      1
 70
1
 40
0.0020
 41
0.0020
  0
VERTEX
  8
0
 10
0.6330
 20
0.2670
 30
 0.0
 42
1.0
  0
VERTEX
  8
0
 10
0.6350
 20
0.2670
 30
 0.0
 42
1.0
  0
SEQEND
  8
0
  0
POLYLINE
  8
0
 66
      1
 70
0
 40
0.0040
 41
0.0040
  0
VERTEX
  8
0
 10
0.5740
 20
0.2860
 30
 0.0
  0
VERTEX
  8
0
 10
0.5170
 20
0.2860
 30
 0.0
  0
SEQEND
  8
0
  0
POLYLINE
  8
0
 66
      1
 70
1
 40
0.0020
 41
0.0020
  0
VERTEX
  8
0
 10
0.5730
 20
0.2860
 30
 0.0
 42
1.0
  0
VERTEX
  8
0
 10
0.5750
 20
0.2860
 30
 0.0
 42
1.0
  0
SEQEND
  8
0
  0
POLYLINE
  8
0
 66
      1
 70
1
 40
0.0020
 41
0.0020
  0
VERTEX
  8
0
 10
0.5160
 20
0.2860
 30
 0.0
 42
1.0
  0
VERTEX
  8
0
 10
0.5180
 20
0.2860
 30
 0.0
 42
1.0
  0
SEQEND
  8
0
  0
POLYLINE
  8
0
 66
      1
 70
0
 40
0.0040
 41
0.0040
  0
VERTEX
  8
0
 10
0.5740
 20
0.4050
 30
 0.0
  0
VERTEX
  8
0
 10
0.5740
 20
0.1680
 30
 0.0
  0
SEQEND
  8
0
  0
POLYLINE
  8
0
 66
      1
 70
1
 40
0.0020
 41
0.0020
  0
VERTEX
  8
0
 10
0.5730
 20
0.4050
 30
 0.0
 42
1.0
  0
VERTEX
  8
0
 10
0.5750
 20
0.4050
 30
 0.0
 42
1.0
  0
SEQEND
  8
0
  0
POLYLINE
  8
0
 66
      1
 70
1
 40
0.0020
 41
0.0020
  0
VERTEX
  8
0
 10
0.5730
 20
0.1680
 30
 0.0
 42
1.0
  0
VERTEX
  8
0
 10
0.5750
 20
0.1680
 30
 0.0
 42
1.0
  0
SEQEND
  8
0
  0
POLYLINE
  8
0
 66
      1
 70
0
 40
0.0040
 41
0.0040
  0
VERTEX
  8
0
 10
0.6690
 20
0.2670
 30
 0.0
  0
VERTEX
  8
0
 10
0.7280
 20
0.2860
 30
 0.0
  0
VERTEX
  8
0
 10
0.6690
 20
0.3060
 30
 0.0
  0
SEQEND
  8
0
  0
POLYLINE
  8
0
 66
      1
 70
1
 40
0.0020
 41
0.0020
  0
VERTEX
  8
0
 10
0.6680
 20
0.2670
 30
 0.0
 42
1.0
  0
VERTEX
  8
0
 10
0.6700
 20
0.2670
 30
 0.0
 42
1.0
  0
SEQEND
  8
0
  0
POLYLINE
  8
0
 66
      1
 70
1
 40
0.0020
 41
0.0020
  0
VERTEX
  8
0
 10
0.7270
 20
0.2860
 30
 0.0
 42
1.0
  0
VERTEX
  8
0
 10
0.7290
 20
0.2860
 30
 0.0
 42
1.0
  0
SEQEND
  8
0
  0
POLYLINE
  8
0
 66
      1
 70
1
 40
0.0020
 41
0.0020
  0
VERTEX
  8
0
 10
0.6680
 20
0.3060
 30
 0.0
 42
1.0
  0
VERTEX
  8
0
 10
0.6700
 20
0.3060
 30
 0.0
 42
1.0
  0
SEQEND
  8
0
  0
POLYLINE
  8
0
 66
      1
 70
0
 40
0.0040
 41
0.0040
  0
VERTEX
  8
0
 10
0.7280
 20
0.2860
 30
 0.0
  0
VERTEX
  8
0
 10
0.7860
 20
0.2860
 30
 0.0
  0
SEQEND
  8
0
  0
POLYLINE
  8
0
 66
      1
 70
1
 40
0.0020
 41
0.0020
  0
VERTEX
  8
0
 10
0.7270
 20
0.2860
 30
 0.0
 42
1.0
  0
VERTEX
  8
0
 10
0.7290
 20
0.2860
 30
 0.0
 42
1.0
  0
SEQEND
  8
0
  0
POLYLINE
  8
0
 66
      1
 70
1
 40
0.0020
 41
0.0020
  0
VERTEX
  8
0
 10
0.7850
 20
0.2860
 30
 0.0
 42
1.0
  0
VERTEX
  8
0
 10
0.7870
 20
0.2860
 30
 0.0
 42
1.0
  0
SEQEND
  8
0
  0
POLYLINE
  8
0
 66
      1
 70
0
 40
0.0040
 41
0.0040
  0
VERTEX
  8
0
 10
0.7280
 20
0.4050
 30
 0.0
  0
VERTEX
  8
0
 10
0.7280
 20
0.1680
 30
 0.0
  0
SEQEND
  8
0
  0
POLYLINE
  8
0
 66
      1
 70
1
 40
0.0020
 41
0.0020
  0
VERTEX
  8
0
 10
0.7270
 20
0.4050
 30
 0.0
 42
1.0
  0
VERTEX
  8
0
 10
0.7290
 20
0.4050
 30
 0.0
 42
1.0
  0
SEQEND
  8
0
  0
POLYLINE
  8
0
 66
      1
 70
1
 40
0.0020
 41
0.0020
  0
VERTEX
  8
0
 10
0.7270
 20
0.1680
 30
 0.0
 42
1.0
  0
VERTEX
  8
0
 10
0.7290
 20
0.1680
 30
 0.0
 42
1.0
  0
SEQEND
  8
0
  0
POLYLINE
  8
DRD
 66
      1
 70
0
 40
0.0100
 41
0.0100
  0
VERTEX
  8
DRD
 10
0.5690
 20
-0.2360
 30
 0.0
  0
VERTEX
  8
DRD
 10
0.5690
 20
-1.5860
 30
 0.0
  0
SEQEND
  8
DRD
  0
POLYLINE
  8
DRD
 66
      1
 70
1
 40
0.0050
 41
0.0050
  0
VERTEX
  8
DRD
 10
0.5665
 20
-0.2360
 30
 0.0
 42
1.0
  0
VERTEX
  8
DRD
 10
0.5715
 20
-0.2360
 30
 0.0
 42
1.0
  0
SEQEND
  8
DRD
  0
POLYLINE
  8
DRD
 66
      1
 70
1
 40
0.0050
 41
0.0050
  0
VERTEX
  8
DRD
 10
0.5665
 20
-1.5860
 30
 0.0
 42
1.0
  0
VERTEX
  8
DRD
 10
0.5715
 20
-1.5860
 30
 0.0
 42
1.0
  0
SEQEND
  8
DRD
  0
POLYLINE
  8
DRD
 66
      1
 70
0
 40
0.0100
 41
0.0100
  0
VERTEX
  8
DRD
 10
0.5640
 20
-0.2360
 30
 0.0
  0
VERTEX
  8
DRD
 10
0.5640
 20
-1.5860
 30
 0.0
  0
SEQEND
  8
DRD
  0
POLYLINE
  8
DRD
 66
      1
 70
1
 40
0.0050
 41
0.0050
  0
VERTEX
  8
DRD
 10
0.5615
 20
-0.2360
 30
 0.0
 42
1.0
  0
VERTEX
  8
DRD
 10
0.5665
 20
-0.2360
 30
 0.0
 42
1.0
  0
SEQEND
  8
DRD
  0
POLYLINE
  8
DRD
 66
      1
 70
1
 40
0.0050
 41
0.0050
  0
VERTEX
  8
DRD
 10
0.5615
 20
-1.5860
 30
 0.0
 42
1.0
  0
VERTEX
  8
DRD
 10
0.5665
 20
-1.5860
 30
 0.0
 42
1.0
  0
SEQEND
  8
DRD
  0
POLYLINE
  8
DRD
 66
      1
 70
0
 40
0.0100
 41
0.0100
  0
VERTEX
  8
DRD
 10
0.9340
 20
-0.4360
 30
 0.0
  0
VERTEX
  8
DRD
 10
0.9340
 20
-1.3860
 30
 0.0
  0
SEQEND
  8
DRD
  0
POLYLINE
  8
DRD
 66
      1
 70
1
 40
0.0050
 41
0.0050
  0
VERTEX
  8
DRD
 10
0.9315
 20
-0.4360
 30
 0.0
 42
1.0
  0
VERTEX
  8
DRD
 10
0.9365
 20
-0.4360
 30
 0.0
 42
1.0
  0
SEQEND
  8
DRD
  0
POLYLINE
  8
DRD
 66
      1
 70
1
 40
0.0050
 41
0.0050
  0
VERTEX
  8
DRD
 10
0.9315
 20
-1.3860
 30
 0.0
 42
1.0
  0
VERTEX
  8
DRD
 10
0.9365
 20
-1.3860
 30
 0.0
 42
1.0
  0
SEQEND
  8
DRD
  0
POLYLINE
  8
DRD
 66
      1
 70
0
 40
0.0100
 41
0.0100
  0
VERTEX
  8
DRD
 10
0.9390
 20
-0.4360
 30
 0.0
  0
VERTEX
  8
DRD
 10
0.9390
 20
-1.3860
 30
 0.0
  0
SEQEND
  8
DRD
  0
POLYLINE
  8
DRD
 66
      1
 70
1
 40
0.0050
 41
0.0050
  0
VERTEX
  8
DRD
 10
0.9365
 20
-0.4360
 30
 0.0
 42
1.0
  0
VERTEX
  8
DRD
 10
0.9415
 20
-0.4360
 30
 0.0
 42
1.0
  0
SEQEND
  8
DRD
  0
POLYLINE
  8
DRD
 66
      1
 70
1
 40
0.0050
 41
0.0050
  0
VERTEX
  8
DRD
 10
0.9365
 20
-1.3860
 30
 0.0
 42
1.0
  0
VERTEX
  8
DRD
 10
0.9415
 20
-1.3860
 30
 0.0
 42
1.0
  0
SEQEND
  8
DRD
  0
POLYLINE
  8
DRD
 66
      1
 70
0
 40
0.0100
 41
0.0100
  0
VERTEX
  8
DRD
 10
1.7780
 20
-0.4360
 30
 0.0
  0
VERTEX
  8
DRD
 10
1.7780
 20
-1.3860
 30
 0.0
  0
SEQEND
  8
DRD
  0
POLYLINE
  8
DRD
 66
      1
 70
1
 40
0.0050
 41
0.0050
  0
VERTEX
  8
DRD
 10
1.7755
 20
-0.4360
 30
 0.0
 42
1.0
  0
VERTEX
  8
DRD
 10
1.7805
 20
-0.4360
 30
 0.0
 42
1.0
  0
SEQEND
  8
DRD
  0
POLYLINE
  8
DRD
 66
      1
 70
1
 40
0.0050
 41
0.0050
  0
VERTEX
  8
DRD
 10
1.7755
 20
-1.3860
 30
 0.0
 42
1.0
  0
VERTEX
  8
DRD
 10
1.7805
 20
-1.3860
 30
 0.0
 42
1.0
  0
SEQEND
  8
DRD
  0
POLYLINE
  8
DRD
 66
      1
 70
0
 40
0.0100
 41
0.0100
  0
VERTEX
  8
DRD
 10
2.5850
 20
-0.4360
 30
 0.0
  0
VERTEX
  8
DRD
 10
2.5850
 20
-1.5860
 30
 0.0
  0
SEQEND
  8
DRD
  0
POLYLINE
  8
DRD
 66
      1
 70
1
 40
0.0050
 41
0.0050
  0
VERTEX
  8
DRD
 10
2.5825
 20
-0.4360
 30
 0.0
 42
1.0
  0
VERTEX
  8
DRD
 10
2.5875
 20
-0.4360
 30
 0.0
 42
1.0
  0
SEQEND
  8
DRD
  0
POLYLINE
  8
DRD
 66
      1
 70
1
 40
0.0050
 41
0.0050
  0
VERTEX
  8
DRD
 10
2.5825
 20
-1.5860
 30
 0.0
 42
1.0
  0
VERTEX
  8
DRD
 10
2.5875
 20
-1.5860
 30
 0.0
 42
1.0
  0
SEQEND
  8
DRD
  0
POLYLINE
  8
DRD
 66
      1
 70
0
 40
0.0100
 41
0.0100
  0
VERTEX
  8
DRD
 10
3.1400
 20
-0.4360
 30
 0.0
  0
VERTEX
  8
DRD
 10
3.1400
 20
-1.5860
 30
 0.0
  0
SEQEND
  8
DRD
  0
POLYLINE
  8
DRD
 66
      1
 70
1
 40
0.0050
 41
0.0050
  0
VERTEX
  8
DRD
 10
3.1375
 20
-0.4360
 30
 0.0
 42
1.0
  0
VERTEX
  8
DRD
 10
3.1425
 20
-0.4360
 30
 0.0
 42
1.0
  0
SEQEND
  8
DRD
  0
POLYLINE
  8
DRD
 66
      1
 70
1
 40
0.0050
 41
0.0050
  0
VERTEX
  8
DRD
 10
3.1375
 20
-1.5860
 30
 0.0
 42
1.0
  0
VERTEX
  8
DRD
 10
3.1425
 20
-1.5860
 30
 0.0
 42
1.0
  0
SEQEND
  8
DRD
  0
POLYLINE
  8
DRD
 66
      1
 70
0
 40
0.0100
 41
0.0100
  0
VERTEX
  8
DRD
 10
4.2940
 20
-0.2360
 30
 0.0
  0
VERTEX
  8
DRD
 10
4.2940
 20
-1.5860
 30
 0.0
  0
SEQEND
  8
DRD
  0
POLYLINE
  8
DRD
 66
      1
 70
1
 40
0.0050
 41
0.0050
  0
VERTEX
  8
DRD
 10
4.2915
 20
-0.2360
 30
 0.0
 42
1.0
  0
VERTEX
  8
DRD
 10
4.2965
 20
-0.2360
 30
 0.0
 42
1.0
  0
SEQEND
  8
DRD
  0
POLYLINE
  8
DRD
 66
      1
 70
1
 40
0.0050
 41
0.0050
  0
VERTEX
  8
DRD
 10
4.2915
 20
-1.5860
 30
 0.0
 42
1.0
  0
VERTEX
  8
DRD
 10
4.2965
 20
-1.5860
 30
 0.0
 42
1.0
  0
SEQEND
  8
DRD
  0
POLYLINE
  8
DRD
 66
      1
 70
0
 40
0.0100
 41
0.0100
  0
VERTEX
  8
DRD
 10
4.2990
 20
-0.2360
 30
 0.0
  0
VERTEX
  8
DRD
 10
4.2990
 20
-1.5860
 30
 0.0
  0
SEQEND
  8
DRD
  0
POLYLINE
  8
DRD
 66
      1
 70
1
 40
0.0050
 41
0.0050
  0
VERTEX
  8
DRD
 10
4.2965
 20
-0.2360
 30
 0.0
 42
1.0
  0
VERTEX
  8
DRD
 10
4.3015
 20
-0.2360
 30
 0.0
 42
1.0
  0
SEQEND
  8
DRD
  0
POLYLINE
  8
DRD
 66
      1
 70
1
 40
0.0050
 41
0.0050
  0
VERTEX
  8
DRD
 10
4.2965
 20
-1.5860
 30
 0.0
 42
1.0
  0
VERTEX
  8
DRD
 10
4.3015
 20
-1.5860
 30
 0.0
 42
1.0
  0
SEQEND
  8
DRD
  0
POLYLINE
  8
DRD
 66
      1
 70
0
 40
0.0100
 41
0.0100
  0
VERTEX
  8
DRD
 10
0.5640
 20
-0.2310
 30
 0.0
  0
VERTEX
  8
DRD
 10
4.2990
 20
-0.2310
 30
 0.0
  0
SEQEND
  8
DRD
  0
POLYLINE
  8
DRD
 66
      1
 70
1
 40
0.0050
 41
0.0050
  0
VERTEX
  8
DRD
 10
0.5615
 20
-0.2310
 30
 0.0
 42
1.0
  0
VERTEX
  8
DRD
 10
0.5665
 20
-0.2310
 30
 0.0
 42
1.0
  0
SEQEND
  8
DRD
  0
POLYLINE
  8
DRD
 66
      1
 70
1
 40
0.0050
 41
0.0050
  0
VERTEX
  8
DRD
 10
4.2965
 20
-0.2310
 30
 0.0
 42
1.0
  0
VERTEX
  8
DRD
 10
4.3015
 20
-0.2310
 30
 0.0
 42
1.0
  0
SEQEND
  8
DRD
  0
POLYLINE
  8
DRD
 66
      1
 70
0
 40
0.0100
 41
0.0100
  0
VERTEX
  8
DRD
 10
0.5690
 20
-0.2360
 30
 0.0
  0
VERTEX
  8
DRD
 10
4.2940
 20
-0.2360
 30
 0.0
  0
SEQEND
  8
DRD
  0
POLYLINE
  8
DRD
 66
      1
 70
1
 40
0.0050
 41
0.0050
  0
VERTEX
  8
DRD
 10
0.5665
 20
-0.2360
 30
 0.0
 42
1.0
  0
VERTEX
  8
DRD
 10
0.5715
 20
-0.2360
 30
 0.0
 42
1.0
  0
SEQEND
  8
DRD
  0
POLYLINE
  8
DRD
 66
      1
 70
1
 40
0.0050
 41
0.0050
  0
VERTEX
  8
DRD
 10
4.2915
 20
-0.2360
 30
 0.0
 42
1.0
  0
VERTEX
  8
DRD
 10
4.2965
 20
-0.2360
 30
 0.0
 42
1.0
  0
SEQEND
  8
DRD
  0
POLYLINE
  8
DRD
 66
      1
 70
0
 40
0.0100
 41
0.0100
  0
VERTEX
  8
DRD
 10
0.5690
 20
-0.4310
 30
 0.0
  0
VERTEX
  8
DRD
 10
4.2940
 20
-0.4310
 30
 0.0
  0
SEQEND
  8
DRD
  0
POLYLINE
  8
DRD
 66
      1
 70
1
 40
0.0050
 41
0.0050
  0
VERTEX
  8
DRD
 10
0.5665
 20
-0.4310
 30
 0.0
 42
1.0
  0
VERTEX
  8
DRD
 10
0.5715
 20
-0.4310
 30
 0.0
 42
1.0
  0
SEQEND
  8
DRD
  0
POLYLINE
  8
DRD
 66
      1
 70
1
 40
0.0050
 41
0.0050
  0
VERTEX
  8
DRD
 10
4.2915
 20
-0.4310
 30
 0.0
 42
1.0
  0
VERTEX
  8
DRD
 10
4.2965
 20
-0.4310
 30
 0.0
 42
1.0
  0
SEQEND
  8
DRD
  0
POLYLINE
  8
DRD
 66
      1
 70
0
 40
0.0100
 41
0.0100
  0
VERTEX
  8
DRD
 10
0.5690
 20
-0.4360
 30
 0.0
  0
VERTEX
  8
DRD
 10
4.2940
 20
-0.4360
 30
 0.0
  0
SEQEND
  8
DRD
  0
POLYLINE
  8
DRD
 66
      1
 70
1
 40
0.0050
 41
0.0050
  0
VERTEX
  8
DRD
 10
0.5665
 20
-0.4360
 30
 0.0
 42
1.0
  0
VERTEX
  8
DRD
 10
0.5715
 20
-0.4360
 30
 0.0
 42
1.0
  0
SEQEND
  8
DRD
  0
POLYLINE
  8
DRD
 66
      1
 70
1
 40
0.0050
 41
0.0050
  0
VERTEX
  8
DRD
 10
4.2915
 20
-0.4360
 30
 0.0
 42
1.0
  0
VERTEX
  8
DRD
 10
4.2965
 20
-0.4360
 30
 0.0
 42
1.0
  0
SEQEND
  8
DRD
  0
POLYLINE
  8
DRD
 66
      1
 70
0
 40
0.0100
 41
0.0100
  0
VERTEX
  8
DRD
 10
0.5690
 20
-0.6310
 30
 0.0
  0
VERTEX
  8
DRD
 10
4.2940
 20
-0.6310
 30
 0.0
  0
SEQEND
  8
DRD
  0
POLYLINE
  8
DRD
 66
      1
 70
1
 40
0.0050
 41
0.0050
  0
VERTEX
  8
DRD
 10
0.5665
 20
-0.6310
 30
 0.0
 42
1.0
  0
VERTEX
  8
DRD
 10
0.5715
 20
-0.6310
 30
 0.0
 42
1.0
  0
SEQEND
  8
DRD
  0
POLYLINE
  8
DRD
 66
      1
 70
1
 40
0.0050
 41
0.0050
  0
VERTEX
  8
DRD
 10
4.2915
 20
-0.6310
 30
 0.0
 42
1.0
  0
VERTEX
  8
DRD
 10
4.2965
 20
-0.6310
 30
 0.0
 42
1.0
  0
SEQEND
  8
DRD
  0
POLYLINE
  8
DRD
 66
      1
 70
0
 40
0.0100
 41
0.0100
  0
VERTEX
  8
DRD
 10
0.5690
 20
-0.6360
 30
 0.0
  0
VERTEX
  8
DRD
 10
4.2940
 20
-0.6360
 30
 0.0
  0
SEQEND
  8
DRD
  0
POLYLINE
  8
DRD
 66
      1
 70
1
 40
0.0050
 41
0.0050
  0
VERTEX
  8
DRD
 10
0.5665
 20
-0.6360
 30
 0.0
 42
1.0
  0
VERTEX
  8
DRD
 10
0.5715
 20
-0.6360
 30
 0.0
 42
1.0
  0
SEQEND
  8
DRD
  0
POLYLINE
  8
DRD
 66
      1
 70
1
 40
0.0050
 41
0.0050
  0
VERTEX
  8
DRD
 10
4.2915
 20
-0.6360
 30
 0.0
 42
1.0
  0
VERTEX
  8
DRD
 10
4.2965
 20
-0.6360
 30
 0.0
 42
1.0
  0
SEQEND
  8
DRD
  0
POLYLINE
  8
DRD
 66
      1
 70
0
 40
0.0100
 41
0.0100
  0
VERTEX
  8
DRD
 10
0.5690
 20
-0.7860
 30
 0.0
  0
VERTEX
  8
DRD
 10
4.2940
 20
-0.7860
 30
 0.0
  0
SEQEND
  8
DRD
  0
POLYLINE
  8
DRD
 66
      1
 70
1
 40
0.0050
 41
0.0050
  0
VERTEX
  8
DRD
 10
0.5665
 20
-0.7860
 30
 0.0
 42
1.0
  0
VERTEX
  8
DRD
 10
0.5715
 20
-0.7860
 30
 0.0
 42
1.0
  0
SEQEND
  8
DRD
  0
POLYLINE
  8
DRD
 66
      1
 70
1
 40
0.0050
 41
0.0050
  0
VERTEX
  8
DRD
 10
4.2915
 20
-0.7860
 30
 0.0
 42
1.0
  0
VERTEX
  8
DRD
 10
4.2965
 20
-0.7860
 30
 0.0
 42
1.0
  0
SEQEND
  8
DRD
  0
POLYLINE
  8
DRD
 66
      1
 70
0
 40
0.0100
 41
0.0100
  0
VERTEX
  8
DRD
 10
0.5690
 20
-0.9360
 30
 0.0
  0
VERTEX
  8
DRD
 10
4.2940
 20
-0.9360
 30
 0.0
  0
SEQEND
  8
DRD
  0
POLYLINE
  8
DRD
 66
      1
 70
1
 40
0.0050
 41
0.0050
  0
VERTEX
  8
DRD
 10
0.5665
 20
-0.9360
 30
 0.0
 42
1.0
  0
VERTEX
  8
DRD
 10
0.5715
 20
-0.9360
 30
 0.0
 42
1.0
  0
SEQEND
  8
DRD
  0
POLYLINE
  8
DRD
 66
      1
 70
1
 40
0.0050
 41
0.0050
  0
VERTEX
  8
DRD
 10
4.2915
 20
-0.9360
 30
 0.0
 42
1.0
  0
VERTEX
  8
DRD
 10
4.2965
 20
-0.9360
 30
 0.0
 42
1.0
  0
SEQEND
  8
DRD
  0
POLYLINE
  8
DRD
 66
      1
 70
0
 40
0.0100
 41
0.0100
  0
VERTEX
  8
DRD
 10
0.5690
 20
-1.0860
 30
 0.0
  0
VERTEX
  8
DRD
 10
4.2940
 20
-1.0860
 30
 0.0
  0
SEQEND
  8
DRD
  0
POLYLINE
  8
DRD
 66
      1
 70
1
 40
0.0050
 41
0.0050
  0
VERTEX
  8
DRD
 10
0.5665
 20
-1.0860
 30
 0.0
 42
1.0
  0
VERTEX
  8
DRD
 10
0.5715
 20
-1.0860
 30
 0.0
 42
1.0
  0
SEQEND
  8
DRD
  0
POLYLINE
  8
DRD
 66
      1
 70
1
 40
0.0050
 41
0.0050
  0
VERTEX
  8
DRD
 10
4.2915
 20
-1.0860
 30
 0.0
 42
1.0
  0
VERTEX
  8
DRD
 10
4.2965
 20
-1.0860
 30
 0.0
 42
1.0
  0
SEQEND
  8
DRD
  0
POLYLINE
  8
DRD
 66
      1
 70
0
 40
0.0100
 41
0.0100
  0
VERTEX
  8
DRD
 10
0.5690
 20
-1.2360
 30
 0.0
  0
VERTEX
  8
DRD
 10
4.2940
 20
-1.2360
 30
 0.0
  0
SEQEND
  8
DRD
  0
POLYLINE
  8
DRD
 66
      1
 70
1
 40
0.0050
 41
0.0050
  0
VERTEX
  8
DRD
 10
0.5665
 20
-1.2360
 30
 0.0
 42
1.0
  0
VERTEX
  8
DRD
 10
0.5715
 20
-1.2360
 30
 0.0
 42
1.0
  0
SEQEND
  8
DRD
  0
POLYLINE
  8
DRD
 66
      1
 70
1
 40
0.0050
 41
0.0050
  0
VERTEX
  8
DRD
 10
4.2915
 20
-1.2360
 30
 0.0
 42
1.0
  0
VERTEX
  8
DRD
 10
4.2965
 20
-1.2360
 30
 0.0
 42
1.0
  0
SEQEND
  8
DRD
  0
POLYLINE
  8
DRD
 66
      1
 70
0
 40
0.0100
 41
0.0100
  0
VERTEX
  8
DRD
 10
0.5690
 20
-1.3860
 30
 0.0
  0
VERTEX
  8
DRD
 10
4.2940
 20
-1.3860
 30
 0.0
  0
SEQEND
  8
DRD
  0
POLYLINE
  8
DRD
 66
      1
 70
1
 40
0.0050
 41
0.0050
  0
VERTEX
  8
DRD
 10
0.5665
 20
-1.3860
 30
 0.0
 42
1.0
  0
VERTEX
  8
DRD
 10
0.5715
 20
-1.3860
 30
 0.0
 42
1.0
  0
SEQEND
  8
DRD
  0
POLYLINE
  8
DRD
 66
      1
 70
1
 40
0.0050
 41
0.0050
  0
VERTEX
  8
DRD
 10
4.2915
 20
-1.3860
 30
 0.0
 42
1.0
  0
VERTEX
  8
DRD
 10
4.2965
 20
-1.3860
 30
 0.0
 42
1.0
  0
SEQEND
  8
DRD
  0
POLYLINE
  8
DRD
 66
      1
 70
0
 40
0.0100
 41
0.0100
  0
VERTEX
  8
DRD
 10
0.5690
 20
-1.5860
 30
 0.0
  0
VERTEX
  8
DRD
 10
4.2940
 20
-1.5860
 30
 0.0
  0
SEQEND
  8
DRD
  0
POLYLINE
  8
DRD
 66
      1
 70
1
 40
0.0050
 41
0.0050
  0
VERTEX
  8
DRD
 10
0.5665
 20
-1.5860
 30
 0.0
 42
1.0
  0
VERTEX
  8
DRD
 10
0.5715
 20
-1.5860
 30
 0.0
 42
1.0
  0
SEQEND
  8
DRD
  0
POLYLINE
  8
DRD
 66
      1
 70
1
 40
0.0050
 41
0.0050
  0
VERTEX
  8
DRD
 10
4.2915
 20
-1.5860
 30
 0.0
 42
1.0
  0
VERTEX
  8
DRD
 10
4.2965
 20
-1.5860
 30
 0.0
 42
1.0
  0
SEQEND
  8
DRD
  0
POLYLINE
  8
DRD
 66
      1
 70
0
 40
0.0100
 41
0.0100
  0
VERTEX
  8
DRD
 10
0.5640
 20
-1.5910
 30
 0.0
  0
VERTEX
  8
DRD
 10
4.2990
 20
-1.5910
 30
 0.0
  0
SEQEND
  8
DRD
  0
POLYLINE
  8
DRD
 66
      1
 70
1
 40
0.0050
 41
0.0050
  0
VERTEX
  8
DRD
 10
0.5615
 20
-1.5910
 30
 0.0
 42
1.0
  0
VERTEX
  8
DRD
 10
0.5665
 20
-1.5910
 30
 0.0
 42
1.0
  0
SEQEND
  8
DRD
  0
POLYLINE
  8
DRD
 66
      1
 70
1
 40
0.0050
 41
0.0050
  0
VERTEX
  8
DRD
 10
4.2965
 20
-1.5910
 30
 0.0
 42
1.0
  0
VERTEX
  8
DRD
 10
4.3015
 20
-1.5910
 30
 0.0
 42
1.0
  0
SEQEND
  8
DRD
  0
POLYLINE
  8
DRD
 66
      1
 70
0
 40
0.0100
 41
0.0100
  0
VERTEX
  8
DRD
 10
0.7510
 20
-0.7360
 30
 0.0
  0
VERTEX
  8
DRD
 10
0.7260
 20
-0.7110
 30
 0.0
  0
SEQEND
  8
DRD
  0
POLYLINE
  8
DRD
 66
      1
 70
1
 40
0.0050
 41
0.0050
  0
VERTEX
  8
DRD
 10
0.7485
 20
-0.7360
 30
 0.0
 42
1.0
  0
VERTEX
  8
DRD
 10
0.7535
 20
-0.7360
 30
 0.0
 42
1.0
  0
SEQEND
  8
DRD
  0
POLYLINE
  8
DRD
 66
      1
 70
1
 40
0.0050
 41
0.0050
  0
VERTEX
  8
DRD
 10
0.7235
 20
-0.7110
 30
 0.0
 42
1.0
  0
VERTEX
  8
DRD
 10
0.7285
 20
-0.7110
 30
 0.0
 42
1.0
  0
SEQEND
  8
DRD
  0
POLYLINE
  8
DRD
 66
      1
 70
0
 40
0.0100
 41
0.0100
  0
VERTEX
  8
DRD
 10
0.7760
 20
-0.7110
 30
 0.0
  0
VERTEX
  8
DRD
 10
0.7510
 20
-0.7360
 30
 0.0
  0
SEQEND
  8
DRD
  0
POLYLINE
  8
DRD
 66
      1
 70
1
 40
0.0050
 41
0.0050
  0
VERTEX
  8
DRD
 10
0.7735
 20
-0.7110
 30
 0.0
 42
1.0
  0
VERTEX
  8
DRD
 10
0.7785
 20
-0.7110
 30
 0.0
 42
1.0
  0
SEQEND
  8
DRD
  0
POLYLINE
  8
DRD
 66
      1
 70
1
 40
0.0050
 41
0.0050
  0
VERTEX
  8
DRD
 10
0.7485
 20
-0.7360
 30
 0.0
 42
1.0
  0
VERTEX
  8
DRD
 10
0.7535
 20
-0.7360
 30
 0.0
 42
1.0
  0
SEQEND
  8
DRD
  0
POLYLINE
  8
DRD
 66
      1
 70
0
 40
0.0100
 41
0.0100
  0
VERTEX
  8
DRD
 10
0.7510
 20
-0.6860
 30
 0.0
  0
VERTEX
  8
DRD
 10
0.7760
 20
-0.7110
 30
 0.0
  0
SEQEND
  8
DRD
  0
POLYLINE
  8
DRD
 66
      1
 70
1
 40
0.0050
 41
0.0050
  0
VERTEX
  8
DRD
 10
0.7485
 20
-0.6860
 30
 0.0
 42
1.0
  0
VERTEX
  8
DRD
 10
0.7535
 20
-0.6860
 30
 0.0
 42
1.0
  0
SEQEND
  8
DRD
  0
POLYLINE
  8
DRD
 66
      1
 70
1
 40
0.0050
 41
0.0050
  0
VERTEX
  8
DRD
 10
0.7735
 20
-0.7110
 30
 0.0
 42
1.0
  0
VERTEX
  8
DRD
 10
0.7785
 20
-0.7110
 30
 0.0
 42
1.0
  0
SEQEND
  8
DRD
  0
POLYLINE
  8
DRD
 66
      1
 70
0
 40
0.0100
 41
0.0100
  0
VERTEX
  8
DRD
 10
0.7260
 20
-0.7110
 30
 0.0
  0
VERTEX
  8
DRD
 10
0.7510
 20
-0.6860
 30
 0.0
  0
SEQEND
  8
DRD
  0
POLYLINE
  8
DRD
 66
      1
 70
1
 40
0.0050
 41
0.0050
  0
VERTEX
  8
DRD
 10
0.7235
 20
-0.7110
 30
 0.0
 42
1.0
  0
VERTEX
  8
DRD
 10
0.7285
 20
-0.7110
 30
 0.0
 42
1.0
  0
SEQEND
  8
DRD
  0
POLYLINE
  8
DRD
 66
      1
 70
1
 40
0.0050
 41
0.0050
  0
VERTEX
  8
DRD
 10
0.7485
 20
-0.6860
 30
 0.0
 42
1.0
  0
VERTEX
  8
DRD
 10
0.7535
 20
-0.6860
 30
 0.0
 42
1.0
  0
SEQEND
  8
DRD
  0
POLYLINE
  8
DRD
 66
      1
 70
0
 40
0.0100
 41
0.0100
  0
VERTEX
  8
DRD
 10
0.7260
 20
-0.8360
 30
 0.0
  0
VERTEX
  8
DRD
 10
0.7760
 20
-0.8860
 30
 0.0
  0
SEQEND
  8
DRD
  0
POLYLINE
  8
DRD
 66
      1
 70
1
 40
0.0050
 41
0.0050
  0
VERTEX
  8
DRD
 10
0.7235
 20
-0.8360
 30
 0.0
 42
1.0
  0
VERTEX
  8
DRD
 10
0.7285
 20
-0.8360
 30
 0.0
 42
1.0
  0
SEQEND
  8
DRD
  0
POLYLINE
  8
DRD
 66
      1
 70
1
 40
0.0050
 41
0.0050
  0
VERTEX
  8
DRD
 10
0.7735
 20
-0.8860
 30
 0.0
 42
1.0
  0
VERTEX
  8
DRD
 10
0.7785
 20
-0.8860
 30
 0.0
 42
1.0
  0
SEQEND
  8
DRD
  0
POLYLINE
  8
DRD
 66
      1
 70
0
 40
0.0100
 41
0.0100
  0
VERTEX
  8
DRD
 10
0.7260
 20
-0.8860
 30
 0.0
  0
VERTEX
  8
DRD
 10
0.7760
 20
-0.8360
 30
 0.0
  0
SEQEND
  8
DRD
  0
POLYLINE
  8
DRD
 66
      1
 70
1
 40
0.0050
 41
0.0050
  0
VERTEX
  8
DRD
 10
0.7235
 20
-0.8860
 30
 0.0
 42
1.0
  0
VERTEX
  8
DRD
 10
0.7285
 20
-0.8860
 30
 0.0
 42
1.0
  0
SEQEND
  8
DRD
  0
POLYLINE
  8
DRD
 66
      1
 70
1
 40
0.0050
 41
0.0050
  0
VERTEX
  8
DRD
 10
0.7735
 20
-0.8360
 30
 0.0
 42
1.0
  0
VERTEX
  8
DRD
 10
0.7785
 20
-0.8360
 30
 0.0
 42
1.0
  0
SEQEND
  8
DRD
  0
POLYLINE
  8
DRD
 66
      1
 70
0
 40
0.0100
 41
0.0100
  0
VERTEX
  8
DRD
 10
0.7760
 20
-0.8860
 30
 0.0
  0
VERTEX
  8
DRD
 10
0.7260
 20
-0.8860
 30
 0.0
  0
SEQEND
  8
DRD
  0
POLYLINE
  8
DRD
 66
      1
 70
1
 40
0.0050
 41
0.0050
  0
VERTEX
  8
DRD
 10
0.7735
 20
-0.8860
 30
 0.0
 42
1.0
  0
VERTEX
  8
DRD
 10
0.7785
 20
-0.8860
 30
 0.0
 42
1.0
  0
SEQEND
  8
DRD
  0
POLYLINE
  8
DRD
 66
      1
 70
1
 40
0.0050
 41
0.0050
  0
VERTEX
  8
DRD
 10
0.7235
 20
-0.8860
 30
 0.0
 42
1.0
  0
VERTEX
  8
DRD
 10
0.7285
 20
-0.8860
 30
 0.0
 42
1.0
  0
SEQEND
  8
DRD
  0
POLYLINE
  8
DRD
 66
      1
 70
0
 40
0.0100
 41
0.0100
  0
VERTEX
  8
DRD
 10
0.7760
 20
-0.8360
 30
 0.0
  0
VERTEX
  8
DRD
 10
0.7760
 20
-0.8860
 30
 0.0
  0
SEQEND
  8
DRD
  0
POLYLINE
  8
DRD
 66
      1
 70
1
 40
0.0050
 41
0.0050
  0
VERTEX
  8
DRD
 10
0.7735
 20
-0.8360
 30
 0.0
 42
1.0
  0
VERTEX
  8
DRD
 10
0.7785
 20
-0.8360
 30
 0.0
 42
1.0
  0
SEQEND
  8
DRD
  0
POLYLINE
  8
DRD
 66
      1
 70
1
 40
0.0050
 41
0.0050
  0
VERTEX
  8
DRD
 10
0.7735
 20
-0.8860
 30
 0.0
 42
1.0
  0
VERTEX
  8
DRD
 10
0.7785
 20
-0.8860
 30
 0.0
 42
1.0
  0
SEQEND
  8
DRD
  0
POLYLINE
  8
DRD
 66
      1
 70
0
 40
0.0100
 41
0.0100
  0
VERTEX
  8
DRD
 10
0.7260
 20
-0.8360
 30
 0.0
  0
VERTEX
  8
DRD
 10
0.7760
 20
-0.8360
 30
 0.0
  0
SEQEND
  8
DRD
  0
POLYLINE
  8
DRD
 66
      1
 70
1
 40
0.0050
 41
0.0050
  0
VERTEX
  8
DRD
 10
0.7235
 20
-0.8360
 30
 0.0
 42
1.0
  0
VERTEX
  8
DRD
 10
0.7285
 20
-0.8360
 30
 0.0
 42
1.0
  0
SEQEND
  8
DRD
  0
POLYLINE
  8
DRD
 66
      1
 70
1
 40
0.0050
 41
0.0050
  0
VERTEX
  8
DRD
 10
0.7735
 20
-0.8360
 30
 0.0
 42
1.0
  0
VERTEX
  8
DRD
 10
0.7785
 20
-0.8360
 30
 0.0
 42
1.0
  0
SEQEND
  8
DRD
  0
POLYLINE
  8
DRD
 66
      1
 70
0
 40
0.0100
 41
0.0100
  0
VERTEX
  8
DRD
 10
0.7260
 20
-0.8860
 30
 0.0
  0
VERTEX
  8
DRD
 10
0.7260
 20
-0.8360
 30
 0.0
  0
SEQEND
  8
DRD
  0
POLYLINE
  8
DRD
 66
      1
 70
1
 40
0.0050
 41
0.0050
  0
VERTEX
  8
DRD
 10
0.7235
 20
-0.8860
 30
 0.0
 42
1.0
  0
VERTEX
  8
DRD
 10
0.7285
 20
-0.8860
 30
 0.0
 42
1.0
  0
SEQEND
  8
DRD
  0
POLYLINE
  8
DRD
 66
      1
 70
1
 40
0.0050
 41
0.0050
  0
VERTEX
  8
DRD
 10
0.7235
 20
-0.8360
 30
 0.0
 42
1.0
  0
VERTEX
  8
DRD
 10
0.7285
 20
-0.8360
 30
 0.0
 42
1.0
  0
SEQEND
  8
DRD
  0
POLYLINE
  8
DRD
 66
      1
 70
0
 40
0.0100
 41
0.0100
  0
VERTEX
  8
DRD
 10
0.7510
 20
-1.0360
 30
 0.0
  0
VERTEX
  8
DRD
 10
0.7510
 20
-0.9860
 30
 0.0
  0
SEQEND
  8
DRD
  0
POLYLINE
  8
DRD
 66
      1
 70
1
 40
0.0050
 41
0.0050
  0
VERTEX
  8
DRD
 10
0.7485
 20
-1.0360
 30
 0.0
 42
1.0
  0
VERTEX
  8
DRD
 10
0.7535
 20
-1.0360
 30
 0.0
 42
1.0
  0
SEQEND
  8
DRD
  0
POLYLINE
  8
DRD
 66
      1
 70
1
 40
0.0050
 41
0.0050
  0
VERTEX
  8
DRD
 10
0.7485
 20
-0.9860
 30
 0.0
 42
1.0
  0
VERTEX
  8
DRD
 10
0.7535
 20
-0.9860
 30
 0.0
 42
1.0
  0
SEQEND
  8
DRD
  0
POLYLINE
  8
DRD
 66
      1
 70
0
 40
0.0100
 41
0.0100
  0
VERTEX
  8
DRD
 10
0.7260
 20
-1.0110
 30
 0.0
  0
VERTEX
  8
DRD
 10
0.7760
 20
-1.0110
 30
 0.0
  0
SEQEND
  8
DRD
  0
POLYLINE
  8
DRD
 66
      1
 70
1
 40
0.0050
 41
0.0050
  0
VERTEX
  8
DRD
 10
0.7235
 20
-1.0110
 30
 0.0
 42
1.0
  0
VERTEX
  8
DRD
 10
0.7285
 20
-1.0110
 30
 0.0
 42
1.0
  0
SEQEND
  8
DRD
  0
POLYLINE
  8
DRD
 66
      1
 70
1
 40
0.0050
 41
0.0050
  0
VERTEX
  8
DRD
 10
0.7735
 20
-1.0110
 30
 0.0
 42
1.0
  0
VERTEX
  8
DRD
 10
0.7785
 20
-1.0110
 30
 0.0
 42
1.0
  0
SEQEND
  8
DRD
  0
POLYLINE
  8
DRD
 66
      1
 70
0
 40
0.0100
 41
0.0100
  0
VERTEX
  8
DRD
 10
0.7260
 20
-1.1360
 30
 0.0
  0
VERTEX
  8
DRD
 10
0.7760
 20
-1.1860
 30
 0.0
  0
SEQEND
  8
DRD
  0
POLYLINE
  8
DRD
 66
      1
 70
1
 40
0.0050
 41
0.0050
  0
VERTEX
  8
DRD
 10
0.7235
 20
-1.1360
 30
 0.0
 42
1.0
  0
VERTEX
  8
DRD
 10
0.7285
 20
-1.1360
 30
 0.0
 42
1.0
  0
SEQEND
  8
DRD
  0
POLYLINE
  8
DRD
 66
      1
 70
1
 40
0.0050
 41
0.0050
  0
VERTEX
  8
DRD
 10
0.7735
 20
-1.1860
 30
 0.0
 42
1.0
  0
VERTEX
  8
DRD
 10
0.7785
 20
-1.1860
 30
 0.0
 42
1.0
  0
SEQEND
  8
DRD
  0
POLYLINE
  8
DRD
 66
      1
 70
0
 40
0.0100
 41
0.0100
  0
VERTEX
  8
DRD
 10
0.7260
 20
-1.1860
 30
 0.0
  0
VERTEX
  8
DRD
 10
0.7760
 20
-1.1360
 30
 0.0
  0
SEQEND
  8
DRD
  0
POLYLINE
  8
DRD
 66
      1
 70
1
 40
0.0050
 41
0.0050
  0
VERTEX
  8
DRD
 10
0.7235
 20
-1.1860
 30
 0.0
 42
1.0
  0
VERTEX
  8
DRD
 10
0.7285
 20
-1.1860
 30
 0.0
 42
1.0
  0
SEQEND
  8
DRD
  0
POLYLINE
  8
DRD
 66
      1
 70
1
 40
0.0050
 41
0.0050
  0
VERTEX
  8
DRD
 10
0.7735
 20
-1.1360
 30
 0.0
 42
1.0
  0
VERTEX
  8
DRD
 10
0.7785
 20
-1.1360
 30
 0.0
 42
1.0
  0
SEQEND
  8
DRD
  0
POLYLINE
  8
DRD
 66
      1
 70
0
 40
0.0100
 41
0.0100
  0
VERTEX
  8
DRD
 10
0.7510
 20
-1.3360
 30
 0.0
  0
VERTEX
  8
DRD
 10
0.7510
 20
-1.2860
 30
 0.0
  0
SEQEND
  8
DRD
  0
POLYLINE
  8
DRD
 66
      1
 70
1
 40
0.0050
 41
0.0050
  0
VERTEX
  8
DRD
 10
0.7485
 20
-1.3360
 30
 0.0
 42
1.0
  0
VERTEX
  8
DRD
 10
0.7535
 20
-1.3360
 30
 0.0
 42
1.0
  0
SEQEND
  8
DRD
  0
POLYLINE
  8
DRD
 66
      1
 70
1
 40
0.0050
 41
0.0050
  0
VERTEX
  8
DRD
 10
0.7485
 20
-1.2860
 30
 0.0
 42
1.0
  0
VERTEX
  8
DRD
 10
0.7535
 20
-1.2860
 30
 0.0
 42
1.0
  0
SEQEND
  8
DRD
  0
POLYLINE
  8
DRD
 66
      1
 70
0
 40
0.0100
 41
0.0100
  0
VERTEX
  8
DRD
 10
0.7260
 20
-1.3110
 30
 0.0
  0
VERTEX
  8
DRD
 10
0.7760
 20
-1.3110
 30
 0.0
  0
SEQEND
  8
DRD
  0
POLYLINE
  8
DRD
 66
      1
 70
1
 40
0.0050
 41
0.0050
  0
VERTEX
  8
DRD
 10
0.7235
 20
-1.3110
 30
 0.0
 42
1.0
  0
VERTEX
  8
DRD
 10
0.7285
 20
-1.3110
 30
 0.0
 42
1.0
  0
SEQEND
  8
DRD
  0
POLYLINE
  8
DRD
 66
      1
 70
1
 40
0.0050
 41
0.0050
  0
VERTEX
  8
DRD
 10
0.7735
 20
-1.3110
 30
 0.0
 42
1.0
  0
VERTEX
  8
DRD
 10
0.7785
 20
-1.3110
 30
 0.0
 42
1.0
  0
SEQEND
  8
DRD
  0
POLYLINE
  8
DRD
 66
      1
 70
0
 40
0.0100
 41
0.0100
  0
VERTEX
  8
DRD
 10
0.7760
 20
-1.3360
 30
 0.0
  0
VERTEX
  8
DRD
 10
0.7260
 20
-1.3360
 30
 0.0
  0
SEQEND
  8
DRD
  0
POLYLINE
  8
DRD
 66
      1
 70
1
 40
0.0050
 41
0.0050
  0
VERTEX
  8
DRD
 10
0.7735
 20
-1.3360
 30
 0.0
 42
1.0
  0
VERTEX
  8
DRD
 10
0.7785
 20
-1.3360
 30
 0.0
 42
1.0
  0
SEQEND
  8
DRD
  0
POLYLINE
  8
DRD
 66
      1
 70
1
 40
0.0050
 41
0.0050
  0
VERTEX
  8
DRD
 10
0.7235
 20
-1.3360
 30
 0.0
 42
1.0
  0
VERTEX
  8
DRD
 10
0.7285
 20
-1.3360
 30
 0.0
 42
1.0
  0
SEQEND
  8
DRD
  0
POLYLINE
  8
DRD
 66
      1
 70
0
 40
0.0100
 41
0.0100
  0
VERTEX
  8
DRD
 10
0.7760
 20
-1.2860
 30
 0.0
  0
VERTEX
  8
DRD
 10
0.7760
 20
-1.3360
 30
 0.0
  0
SEQEND
  8
DRD
  0
POLYLINE
  8
DRD
 66
      1
 70
1
 40
0.0050
 41
0.0050
  0
VERTEX
  8
DRD
 10
0.7735
 20
-1.2860
 30
 0.0
 42
1.0
  0
VERTEX
  8
DRD
 10
0.7785
 20
-1.2860
 30
 0.0
 42
1.0
  0
SEQEND
  8
DRD
  0
POLYLINE
  8
DRD
 66
      1
 70
1
 40
0.0050
 41
0.0050
  0
VERTEX
  8
DRD
 10
0.7735
 20
-1.3360
 30
 0.0
 42
1.0
  0
VERTEX
  8
DRD
 10
0.7785
 20
-1.3360
 30
 0.0
 42
1.0
  0
SEQEND
  8
DRD
  0
POLYLINE
  8
DRD
 66
      1
 70
0
 40
0.0100
 41
0.0100
  0
VERTEX
  8
DRD
 10
0.7260
 20
-1.2860
 30
 0.0
  0
VERTEX
  8
DRD
 10
0.7760
 20
-1.2860
 30
 0.0
  0
SEQEND
  8
DRD
  0
POLYLINE
  8
DRD
 66
      1
 70
1
 40
0.0050
 41
0.0050
  0
VERTEX
  8
DRD
 10
0.7235
 20
-1.2860
 30
 0.0
 42
1.0
  0
VERTEX
  8
DRD
 10
0.7285
 20
-1.2860
 30
 0.0
 42
1.0
  0
SEQEND
  8
DRD
  0
POLYLINE
  8
DRD
 66
      1
 70
1
 40
0.0050
 41
0.0050
  0
VERTEX
  8
DRD
 10
0.7735
 20
-1.2860
 30
 0.0
 42
1.0
  0
VERTEX
  8
DRD
 10
0.7785
 20
-1.2860
 30
 0.0
 42
1.0
  0
SEQEND
  8
DRD
  0
POLYLINE
  8
DRD
 66
      1
 70
0
 40
0.0100
 41
0.0100
  0
VERTEX
  8
DRD
 10
0.7260
 20
-1.3360
 30
 0.0
  0
VERTEX
  8
DRD
 10
0.7260
 20
-1.2860
 30
 0.0
  0
SEQEND
  8
DRD
  0
POLYLINE
  8
DRD
 66
      1
 70
1
 40
0.0050
 41
0.0050
  0
VERTEX
  8
DRD
 10
0.7235
 20
-1.3360
 30
 0.0
 42
1.0
  0
VERTEX
  8
DRD
 10
0.7285
 20
-1.3360
 30
 0.0
 42
1.0
  0
SEQEND
  8
DRD
  0
POLYLINE
  8
DRD
 66
      1
 70
1
 40
0.0050
 41
0.0050
  0
VERTEX
  8
DRD
 10
0.7235
 20
-1.2860
 30
 0.0
 42
1.0
  0
VERTEX
  8
DRD
 10
0.7285
 20
-1.2860
 30
 0.0
 42
1.0
  0
SEQEND
  8
DRD
  0
POLYLINE
  8
DRD
 66
      1
 70
0
 40
0.0100
 41
0.0100
  0
VERTEX
  8
DRD
 10
1.2480
 20
0.7830
 30
 0.0
  0
VERTEX
  8
DRD
 10
1.2230
 20
0.8080
 30
 0.0
  0
SEQEND
  8
DRD
  0
POLYLINE
  8
DRD
 66
      1
 70
1
 40
0.0050
 41
0.0050
  0
VERTEX
  8
DRD
 10
1.2455
 20
0.7830
 30
 0.0
 42
1.0
  0
VERTEX
  8
DRD
 10
1.2505
 20
0.7830
 30
 0.0
 42
1.0
  0
SEQEND
  8
DRD
  0
POLYLINE
  8
DRD
 66
      1
 70
1
 40
0.0050
 41
0.0050
  0
VERTEX
  8
DRD
 10
1.2205
 20
0.8080
 30
 0.0
 42
1.0
  0
VERTEX
  8
DRD
 10
1.2255
 20
0.8080
 30
 0.0
 42
1.0
  0
SEQEND
  8
DRD
  0
POLYLINE
  8
DRD
 66
      1
 70
0
 40
0.0100
 41
0.0100
  0
VERTEX
  8
DRD
 10
1.2730
 20
0.8080
 30
 0.0
  0
VERTEX
  8
DRD
 10
1.2480
 20
0.7830
 30
 0.0
  0
SEQEND
  8
DRD
  0
POLYLINE
  8
DRD
 66
      1
 70
1
 40
0.0050
 41
0.0050
  0
VERTEX
  8
DRD
 10
1.2705
 20
0.8080
 30
 0.0
 42
1.0
  0
VERTEX
  8
DRD
 10
1.2755
 20
0.8080
 30
 0.0
 42
1.0
  0
SEQEND
  8
DRD
  0
POLYLINE
  8
DRD
 66
      1
 70
1
 40
0.0050
 41
0.0050
  0
VERTEX
  8
DRD
 10
1.2455
 20
0.7830
 30
 0.0
 42
1.0
  0
VERTEX
  8
DRD
 10
1.2505
 20
0.7830
 30
 0.0
 42
1.0
  0
SEQEND
  8
DRD
  0
POLYLINE
  8
DRD
 66
      1
 70
0
 40
0.0100
 41
0.0100
  0
VERTEX
  8
DRD
 10
1.2480
 20
0.8330
 30
 0.0
  0
VERTEX
  8
DRD
 10
1.2730
 20
0.8080
 30
 0.0
  0
SEQEND
  8
DRD
  0
POLYLINE
  8
DRD
 66
      1
 70
1
 40
0.0050
 41
0.0050
  0
VERTEX
  8
DRD
 10
1.2455
 20
0.8330
 30
 0.0
 42
1.0
  0
VERTEX
  8
DRD
 10
1.2505
 20
0.8330
 30
 0.0
 42
1.0
  0
SEQEND
  8
DRD
  0
POLYLINE
  8
DRD
 66
      1
 70
1
 40
0.0050
 41
0.0050
  0
VERTEX
  8
DRD
 10
1.2705
 20
0.8080
 30
 0.0
 42
1.0
  0
VERTEX
  8
DRD
 10
1.2755
 20
0.8080
 30
 0.0
 42
1.0
  0
SEQEND
  8
DRD
  0
POLYLINE
  8
DRD
 66
      1
 70
0
 40
0.0100
 41
0.0100
  0
VERTEX
  8
DRD
 10
1.2230
 20
0.8080
 30
 0.0
  0
VERTEX
  8
DRD
 10
1.2480
 20
0.8330
 30
 0.0
  0
SEQEND
  8
DRD
  0
POLYLINE
  8
DRD
 66
      1
 70
1
 40
0.0050
 41
0.0050
  0
VERTEX
  8
DRD
 10
1.2205
 20
0.8080
 30
 0.0
 42
1.0
  0
VERTEX
  8
DRD
 10
1.2255
 20
0.8080
 30
 0.0
 42
1.0
  0
SEQEND
  8
DRD
  0
POLYLINE
  8
DRD
 66
      1
 70
1
 40
0.0050
 41
0.0050
  0
VERTEX
  8
DRD
 10
1.2455
 20
0.8330
 30
 0.0
 42
1.0
  0
VERTEX
  8
DRD
 10
1.2505
 20
0.8330
 30
 0.0
 42
1.0
  0
SEQEND
  8
DRD
  0
POLYLINE
  8
DRD
 66
      1
 70
0
 40
0.0100
 41
0.0100
  0
VERTEX
  8
DRD
 10
1.4660
 20
0.7830
 30
 0.0
  0
VERTEX
  8
DRD
 10
1.4410
 20
0.8080
 30
 0.0
  0
SEQEND
  8
DRD
  0
POLYLINE
  8
DRD
 66
      1
 70
1
 40
0.0050
 41
0.0050
  0
VERTEX
  8
DRD
 10
1.4635
 20
0.7830
 30
 0.0
 42
1.0
  0
VERTEX
  8
DRD
 10
1.4685
 20
0.7830
 30
 0.0
 42
1.0
  0
SEQEND
  8
DRD
  0
POLYLINE
  8
DRD
 66
      1
 70
1
 40
0.0050
 41
0.0050
  0
VERTEX
  8
DRD
 10
1.4385
 20
0.8080
 30
 0.0
 42
1.0
  0
VERTEX
  8
DRD
 10
1.4435
 20
0.8080
 30
 0.0
 42
1.0
  0
SEQEND
  8
DRD
  0
POLYLINE
  8
DRD
 66
      1
 70
0
 40
0.0100
 41
0.0100
  0
VERTEX
  8
DRD
 10
1.4910
 20
0.8080
 30
 0.0
  0
VERTEX
  8
DRD
 10
1.4660
 20
0.7830
 30
 0.0
  0
SEQEND
  8
DRD
  0
POLYLINE
  8
DRD
 66
      1
 70
1
 40
0.0050
 41
0.0050
  0
VERTEX
  8
DRD
 10
1.4885
 20
0.8080
 30
 0.0
 42
1.0
  0
VERTEX
  8
DRD
 10
1.4935
 20
0.8080
 30
 0.0
 42
1.0
  0
SEQEND
  8
DRD
  0
POLYLINE
  8
DRD
 66
      1
 70
1
 40
0.0050
 41
0.0050
  0
VERTEX
  8
DRD
 10
1.4635
 20
0.7830
 30
 0.0
 42
1.0
  0
VERTEX
  8
DRD
 10
1.4685
 20
0.7830
 30
 0.0
 42
1.0
  0
SEQEND
  8
DRD
  0
POLYLINE
  8
DRD
 66
      1
 70
0
 40
0.0100
 41
0.0100
  0
VERTEX
  8
DRD
 10
1.4660
 20
0.8330
 30
 0.0
  0
VERTEX
  8
DRD
 10
1.4910
 20
0.8080
 30
 0.0
  0
SEQEND
  8
DRD
  0
POLYLINE
  8
DRD
 66
      1
 70
1
 40
0.0050
 41
0.0050
  0
VERTEX
  8
DRD
 10
1.4635
 20
0.8330
 30
 0.0
 42
1.0
  0
VERTEX
  8
DRD
 10
1.4685
 20
0.8330
 30
 0.0
 42
1.0
  0
SEQEND
  8
DRD
  0
POLYLINE
  8
DRD
 66
      1
 70
1
 40
0.0050
 41
0.0050
  0
VERTEX
  8
DRD
 10
1.4885
 20
0.8080
 30
 0.0
 42
1.0
  0
VERTEX
  8
DRD
 10
1.4935
 20
0.8080
 30
 0.0
 42
1.0
  0
SEQEND
  8
DRD
  0
POLYLINE
  8
DRD
 66
      1
 70
0
 40
0.0100
 41
0.0100
  0
VERTEX
  8
DRD
 10
1.4410
 20
0.8080
 30
 0.0
  0
VERTEX
  8
DRD
 10
1.4660
 20
0.8330
 30
 0.0
  0
SEQEND
  8
DRD
  0
POLYLINE
  8
DRD
 66
      1
 70
1
 40
0.0050
 41
0.0050
  0
VERTEX
  8
DRD
 10
1.4385
 20
0.8080
 30
 0.0
 42
1.0
  0
VERTEX
  8
DRD
 10
1.4435
 20
0.8080
 30
 0.0
 42
1.0
  0
SEQEND
  8
DRD
  0
POLYLINE
  8
DRD
 66
      1
 70
1
 40
0.0050
 41
0.0050
  0
VERTEX
  8
DRD
 10
1.4635
 20
0.8330
 30
 0.0
 42
1.0
  0
VERTEX
  8
DRD
 10
1.4685
 20
0.8330
 30
 0.0
 42
1.0
  0
SEQEND
  8
DRD
  0
POLYLINE
  8
DRD
 66
      1
 70
0
 40
0.0100
 41
0.0100
  0
VERTEX
  8
DRD
 10
1.9240
 20
0.9380
 30
 0.0
  0
VERTEX
  8
DRD
 10
1.8990
 20
0.9630
 30
 0.0
  0
SEQEND
  8
DRD
  0
POLYLINE
  8
DRD
 66
      1
 70
1
 40
0.0050
 41
0.0050
  0
VERTEX
  8
DRD
 10
1.9215
 20
0.9380
 30
 0.0
 42
1.0
  0
VERTEX
  8
DRD
 10
1.9265
 20
0.9380
 30
 0.0
 42
1.0
  0
SEQEND
  8
DRD
  0
POLYLINE
  8
DRD
 66
      1
 70
1
 40
0.0050
 41
0.0050
  0
VERTEX
  8
DRD
 10
1.8965
 20
0.9630
 30
 0.0
 42
1.0
  0
VERTEX
  8
DRD
 10
1.9015
 20
0.9630
 30
 0.0
 42
1.0
  0
SEQEND
  8
DRD
  0
POLYLINE
  8
DRD
 66
      1
 70
0
 40
0.0100
 41
0.0100
  0
VERTEX
  8
DRD
 10
1.9490
 20
0.9630
 30
 0.0
  0
VERTEX
  8
DRD
 10
1.9240
 20
0.9380
 30
 0.0
  0
SEQEND
  8
DRD
  0
POLYLINE
  8
DRD
 66
      1
 70
1
 40
0.0050
 41
0.0050
  0
VERTEX
  8
DRD
 10
1.9465
 20
0.9630
 30
 0.0
 42
1.0
  0
VERTEX
  8
DRD
 10
1.9515
 20
0.9630
 30
 0.0
 42
1.0
  0
SEQEND
  8
DRD
  0
POLYLINE
  8
DRD
 66
      1
 70
1
 40
0.0050
 41
0.0050
  0
VERTEX
  8
DRD
 10
1.9215
 20
0.9380
 30
 0.0
 42
1.0
  0
VERTEX
  8
DRD
 10
1.9265
 20
0.9380
 30
 0.0
 42
1.0
  0
SEQEND
  8
DRD
  0
POLYLINE
  8
DRD
 66
      1
 70
0
 40
0.0100
 41
0.0100
  0
VERTEX
  8
DRD
 10
1.9240
 20
0.9880
 30
 0.0
  0
VERTEX
  8
DRD
 10
1.9490
 20
0.9630
 30
 0.0
  0
SEQEND
  8
DRD
  0
POLYLINE
  8
DRD
 66
      1
 70
1
 40
0.0050
 41
0.0050
  0
VERTEX
  8
DRD
 10
1.9215
 20
0.9880
 30
 0.0
 42
1.0
  0
VERTEX
  8
DRD
 10
1.9265
 20
0.9880
 30
 0.0
 42
1.0
  0
SEQEND
  8
DRD
  0
POLYLINE
  8
DRD
 66
      1
 70
1
 40
0.0050
 41
0.0050
  0
VERTEX
  8
DRD
 10
1.9465
 20
0.9630
 30
 0.0
 42
1.0
  0
VERTEX
  8
DRD
 10
1.9515
 20
0.9630
 30
 0.0
 42
1.0
  0
SEQEND
  8
DRD
  0
POLYLINE
  8
DRD
 66
      1
 70
0
 40
0.0100
 41
0.0100
  0
VERTEX
  8
DRD
 10
1.8990
 20
0.9630
 30
 0.0
  0
VERTEX
  8
DRD
 10
1.9240
 20
0.9880
 30
 0.0
  0
SEQEND
  8
DRD
  0
POLYLINE
  8
DRD
 66
      1
 70
1
 40
0.0050
 41
0.0050
  0
VERTEX
  8
DRD
 10
1.8965
 20
0.9630
 30
 0.0
 42
1.0
  0
VERTEX
  8
DRD
 10
1.9015
 20
0.9630
 30
 0.0
 42
1.0
  0
SEQEND
  8
DRD
  0
POLYLINE
  8
DRD
 66
      1
 70
1
 40
0.0050
 41
0.0050
  0
VERTEX
  8
DRD
 10
1.9215
 20
0.9880
 30
 0.0
 42
1.0
  0
VERTEX
  8
DRD
 10
1.9265
 20
0.9880
 30
 0.0
 42
1.0
  0
SEQEND
  8
DRD
  0
POLYLINE
  8
DRD
 66
      1
 70
0
 40
0.0100
 41
0.0100
  0
VERTEX
  8
DRD
 10
1.9240
 20
0.9380
 30
 0.0
  0
VERTEX
  8
DRD
 10
1.8990
 20
0.9630
 30
 0.0
  0
SEQEND
  8
DRD
  0
POLYLINE
  8
DRD
 66
      1
 70
1
 40
0.0050
 41
0.0050
  0
VERTEX
  8
DRD
 10
1.9215
 20
0.9380
 30
 0.0
 42
1.0
  0
VERTEX
  8
DRD
 10
1.9265
 20
0.9380
 30
 0.0
 42
1.0
  0
SEQEND
  8
DRD
  0
POLYLINE
  8
DRD
 66
      1
 70
1
 40
0.0050
 41
0.0050
  0
VERTEX
  8
DRD
 10
1.8965
 20
0.9630
 30
 0.0
 42
1.0
  0
VERTEX
  8
DRD
 10
1.9015
 20
0.9630
 30
 0.0
 42
1.0
  0
SEQEND
  8
DRD
  0
POLYLINE
  8
DRD
 66
      1
 70
0
 40
0.0100
 41
0.0100
  0
VERTEX
  8
DRD
 10
1.9490
 20
0.9630
 30
 0.0
  0
VERTEX
  8
DRD
 10
1.9240
 20
0.9380
 30
 0.0
  0
SEQEND
  8
DRD
  0
POLYLINE
  8
DRD
 66
      1
 70
1
 40
0.0050
 41
0.0050
  0
VERTEX
  8
DRD
 10
1.9465
 20
0.9630
 30
 0.0
 42
1.0
  0
VERTEX
  8
DRD
 10
1.9515
 20
0.9630
 30
 0.0
 42
1.0
  0
SEQEND
  8
DRD
  0
POLYLINE
  8
DRD
 66
      1
 70
1
 40
0.0050
 41
0.0050
  0
VERTEX
  8
DRD
 10
1.9215
 20
0.9380
 30
 0.0
 42
1.0
  0
VERTEX
  8
DRD
 10
1.9265
 20
0.9380
 30
 0.0
 42
1.0
  0
SEQEND
  8
DRD
  0
POLYLINE
  8
DRD
 66
      1
 70
0
 40
0.0100
 41
0.0100
  0
VERTEX
  8
DRD
 10
1.9240
 20
0.9880
 30
 0.0
  0
VERTEX
  8
DRD
 10
1.9490
 20
0.9630
 30
 0.0
  0
SEQEND
  8
DRD
  0
POLYLINE
  8
DRD
 66
      1
 70
1
 40
0.0050
 41
0.0050
  0
VERTEX
  8
DRD
 10
1.9215
 20
0.9880
 30
 0.0
 42
1.0
  0
VERTEX
  8
DRD
 10
1.9265
 20
0.9880
 30
 0.0
 42
1.0
  0
SEQEND
  8
DRD
  0
POLYLINE
  8
DRD
 66
      1
 70
1
 40
0.0050
 41
0.0050
  0
VERTEX
  8
DRD
 10
1.9465
 20
0.9630
 30
 0.0
 42
1.0
  0
VERTEX
  8
DRD
 10
1.9515
 20
0.9630
 30
 0.0
 42
1.0
  0
SEQEND
  8
DRD
  0
POLYLINE
  8
DRD
 66
      1
 70
0
 40
0.0100
 41
0.0100
  0
VERTEX
  8
DRD
 10
1.8990
 20
0.9630
 30
 0.0
  0
VERTEX
  8
DRD
 10
1.9240
 20
0.9880
 30
 0.0
  0
SEQEND
  8
DRD
  0
POLYLINE
  8
DRD
 66
      1
 70
1
 40
0.0050
 41
0.0050
  0
VERTEX
  8
DRD
 10
1.8965
 20
0.9630
 30
 0.0
 42
1.0
  0
VERTEX
  8
DRD
 10
1.9015
 20
0.9630
 30
 0.0
 42
1.0
  0
SEQEND
  8
DRD
  0
POLYLINE
  8
DRD
 66
      1
 70
1
 40
0.0050
 41
0.0050
  0
VERTEX
  8
DRD
 10
1.9215
 20
0.9880
 30
 0.0
 42
1.0
  0
VERTEX
  8
DRD
 10
1.9265
 20
0.9880
 30
 0.0
 42
1.0
  0
SEQEND
  8
DRD
  0
POLYLINE
  8
DRD
 66
      1
 70
0
 40
0.0100
 41
0.0100
  0
VERTEX
  8
DRD
 10
1.8820
 20
0.7250
 30
 0.0
  0
VERTEX
  8
DRD
 10
1.8570
 20
0.7500
 30
 0.0
  0
SEQEND
  8
DRD
  0
POLYLINE
  8
DRD
 66
      1
 70
1
 40
0.0050
 41
0.0050
  0
VERTEX
  8
DRD
 10
1.8795
 20
0.7250
 30
 0.0
 42
1.0
  0
VERTEX
  8
DRD
 10
1.8845
 20
0.7250
 30
 0.0
 42
1.0
  0
SEQEND
  8
DRD
  0
POLYLINE
  8
DRD
 66
      1
 70
1
 40
0.0050
 41
0.0050
  0
VERTEX
  8
DRD
 10
1.8545
 20
0.7500
 30
 0.0
 42
1.0
  0
VERTEX
  8
DRD
 10
1.8595
 20
0.7500
 30
 0.0
 42
1.0
  0
SEQEND
  8
DRD
  0
POLYLINE
  8
DRD
 66
      1
 70
0
 40
0.0100
 41
0.0100
  0
VERTEX
  8
DRD
 10
1.9070
 20
0.7500
 30
 0.0
  0
VERTEX
  8
DRD
 10
1.8820
 20
0.7250
 30
 0.0
  0
SEQEND
  8
DRD
  0
POLYLINE
  8
DRD
 66
      1
 70
1
 40
0.0050
 41
0.0050
  0
VERTEX
  8
DRD
 10
1.9045
 20
0.7500
 30
 0.0
 42
1.0
  0
VERTEX
  8
DRD
 10
1.9095
 20
0.7500
 30
 0.0
 42
1.0
  0
SEQEND
  8
DRD
  0
POLYLINE
  8
DRD
 66
      1
 70
1
 40
0.0050
 41
0.0050
  0
VERTEX
  8
DRD
 10
1.8795
 20
0.7250
 30
 0.0
 42
1.0
  0
VERTEX
  8
DRD
 10
1.8845
 20
0.7250
 30
 0.0
 42
1.0
  0
SEQEND
  8
DRD
  0
POLYLINE
  8
DRD
 66
      1
 70
0
 40
0.0100
 41
0.0100
  0
VERTEX
  8
DRD
 10
1.8820
 20
0.7750
 30
 0.0
  0
VERTEX
  8
DRD
 10
1.9070
 20
0.7500
 30
 0.0
  0
SEQEND
  8
DRD
  0
POLYLINE
  8
DRD
 66
      1
 70
1
 40
0.0050
 41
0.0050
  0
VERTEX
  8
DRD
 10
1.8795
 20
0.7750
 30
 0.0
 42
1.0
  0
VERTEX
  8
DRD
 10
1.8845
 20
0.7750
 30
 0.0
 42
1.0
  0
SEQEND
  8
DRD
  0
POLYLINE
  8
DRD
 66
      1
 70
1
 40
0.0050
 41
0.0050
  0
VERTEX
  8
DRD
 10
1.9045
 20
0.7500
 30
 0.0
 42
1.0
  0
VERTEX
  8
DRD
 10
1.9095
 20
0.7500
 30
 0.0
 42
1.0
  0
SEQEND
  8
DRD
  0
POLYLINE
  8
DRD
 66
      1
 70
0
 40
0.0100
 41
0.0100
  0
VERTEX
  8
DRD
 10
1.8570
 20
0.7500
 30
 0.0
  0
VERTEX
  8
DRD
 10
1.8820
 20
0.7750
 30
 0.0
  0
SEQEND
  8
DRD
  0
POLYLINE
  8
DRD
 66
      1
 70
1
 40
0.0050
 41
0.0050
  0
VERTEX
  8
DRD
 10
1.8545
 20
0.7500
 30
 0.0
 42
1.0
  0
VERTEX
  8
DRD
 10
1.8595
 20
0.7500
 30
 0.0
 42
1.0
  0
SEQEND
  8
DRD
  0
POLYLINE
  8
DRD
 66
      1
 70
1
 40
0.0050
 41
0.0050
  0
VERTEX
  8
DRD
 10
1.8795
 20
0.7750
 30
 0.0
 42
1.0
  0
VERTEX
  8
DRD
 10
1.8845
 20
0.7750
 30
 0.0
 42
1.0
  0
SEQEND
  8
DRD
  0
TEXT
  8
SST
 10
1.8330
 20
0.9940
 40
0.0500
 41
0.8000
  1
Q4
 50
360.0000
  0
TEXT
  8
SST
 10
1.3260
 20
1.3190
 40
0.0500
 41
0.8000
  1
R20
 50
270.0000
  0
TEXT
  8
SST
 10
2.6190
 20
1.4090
 40
0.0500
 41
0.8000
  1
C9
 50
90.0000
  0
TEXT
  8
SST
 10
2.4630
 20
0.6960
 40
0.0500
 41
0.8000
  1
C13
 50
270.0000
  0
TEXT
  8
SST
 10
1.9430
 20
0.8770
 40
0.0500
 41
0.8000
  1
U2
 50
360.0000
  0
TEXT
  8
SST
 10
1.1370
 20
1.0620
 40
0.0500
 41
0.8000
  1
D4
 50
360.0000
  0
TEXT
  8
SST
 10
0.9020
 20
1.7460
 40
0.0600
 41
0.8000
  1
VIN +18V MAX
 50
0.0000
  0
TEXT
  8
SST
 10
1.5010
 20
0.7220
 40
0.0500
 41
0.8000
  1
C4
 50
360.0000
  0
TEXT
  8
SST
 10
0.9270
 20
1.3480
 40
0.0500
 41
0.8000
  1
C1
 50
360.0000
  0
TEXT
  8
SST
 10
0.6890
 20
1.4390
 40
0.0600
 41
0.8000
  1
VIN
 50
0.0000
  0
TEXT
  8
SST
 10
1.8640
 20
1.3210
 40
0.0500
 41
0.8000
  1
C10
 50
270.0000
  0
TEXT
  8
SST
 10
0.6900
 20
1.2330
 40
0.0600
 41
0.8000
  1
GND
 50
0.0000
  0
TEXT
  8
SST
 10
0.6900
 20
1.0010
 40
0.0600
 41
0.8000
  1
BAT-
 50
0.0000
  0
TEXT
  8
SST
 10
0.6900
 20
0.7780
 40
0.0600
 41
0.8000
  1
BAT+
 50
0.0000
  0
TEXT
  8
SST
 10
2.5840
 20
0.9640
 40
0.0600
 41
0.8000
  1
VOUT
 50
0.0000
  0
TEXT
  8
SST
 10
2.6000
 20
0.8300
 40
0.0600
 41
0.8000
  1
GND
 50
0.0000
  0
TEXT
  8
SST
 10
2.4720
 20
0.4760
 40
0.0500
 41
0.8000
  1
Q2
 50
360.0000
  0
TEXT
  8
SST
 10
0.9340
 20
0.4030
 40
0.0600
 41
0.8000
  1
picoUPS-120 ATV (C) MINI-BOX.COM
 50
0.0000
  0
TEXT
  8
SST
 10
1.9800
 20
0.8700
 40
0.0500
 41
0.8000
  1
C12
 50
270.0000
  0
TEXT
  8
SST
 10
2.7990
 20
1.4100
 40
0.0500
 41
0.8000
  1
C7
 50
90.0000
  0
TEXT
  8
SST
 10
2.4660
 20
1.1540
 40
0.0500
 41
0.8000
  1
Q1
 50
360.0000
  0
TEXT
  8
SST
 10
2.7100
 20
1.4080
 40
0.0500
 41
0.8000
  1
C8
 50
90.0000
  0
TEXT
  8
SST
 10
1.2140
 20
1.3180
 40
0.0500
 41
0.8000
  1
R22
 50
270.0000
  0
TEXT
  8
SST
 10
2.1440
 20
1.3410
 40
0.0500
 41
0.8000
  1
U1
 50
360.0000
  0
TEXT
  8
SST
 10
1.7200
 20
0.9210
 40
0.0500
 41
0.8000
  1
R23
 50
360.0000
  0
TEXT
  8
SST
 10
2.5050
 20
1.3140
 40
0.0500
 41
0.8000
  1
C11
 50
270.0000
  0
TEXT
  8
SST
 10
1.7200
 20
0.8700
 40
0.0500
 41
0.8000
  1
R24
 50
360.0000
  0
TEXT
  8
SST
 10
2.4580
 20
1.2930
 40
0.0500
 41
0.8000
  1
R1
 50
270.0000
  0
TEXT
  8
SST
 10
2.3550
 20
0.7550
 40
0.0500
 41
0.8000
  1
R2
 50
360.0000
  0
TEXT
  8
SST
 10
2.4510
 20
1.6930
 40
0.0500
 41
0.8000
  1
C17
 50
360.0000
  0
TEXT
  8
SST
 10
1.4800
 20
0.9270
 40
0.0500
 41
0.8000
  1
Q7
 50
360.0000
  0
TEXT
  8
SST
 10
1.2180
 20
1.6690
 40
0.0500
 41
0.8000
  1
F1
 50
360.0000
  0
TEXT
  8
SST
 10
1.6320
 20
1.6850
 40
0.0500
 41
0.8000
  1
C15
 50
360.0000
  0
TEXT
  8
SST
 10
1.7190
 20
1.0160
 40
0.0500
 41
0.8000
  1
R25
 50
360.0000
  0
TEXT
  8
SST
 10
1.7190
 20
0.9700
 40
0.0500
 41
0.8000
  1
R26
 50
360.0000
  0
TEXT
  8
SST
 10
1.9110
 20
0.9410
 40
0.0500
 41
0.8000
  1
R16
 50
360.0000
  0
TEXT
  8
SST
 10
2.0730
 20
1.6860
 40
0.0500
 41
0.8000
  1
C16
 50
360.0000
  0
TEXT
  8
SST
 10
1.5670
 20
0.9020
 40
0.0500
 41
0.8000
  1
U3
 50
360.0000
  0
TEXT
  8
SST
 10
1.6830
 20
1.2260
 40
0.0600
 41
0.8000
  1
IN
 50
360.0000
  0
TEXT
  8
SST
 10
1.7100
 20
1.2110
 40
0.0500
 41
0.8000
  1
R18
 50
270.0000
  0
TEXT
  8
0
 10
1.5340
 20
0.0680
 40
0.0790
 41
0.8000
  1
54.00
 50
0.0000
  0
TEXT
  8
0
 10
0.1730
 20
0.9300
 40
0.0790
 41
0.8000
  1
32.92
 50
90.0000
  0
TEXT
  8
0
 10
0.5760
 20
0.2340
 40
0.0790
 41
0.8000
  1
3.91
 50
0.0000
  0
TEXT
  8
0
 10
0.4380
 20
0.3870
 40
0.0790
 41
0.8000
  1
3.91
 50
90.0000
  0
TEXT
  8
DRD
 10
1.9170
 20
-0.4110
 40
0.1500
 41
0.8000
  1
DRILL CHART
 50
0.0000
  0
TEXT
  8
DRD
 10
0.6190
 20
-0.6110
 40
0.1500
 41
0.8000
  1
SYM
 50
0.0000
  0
TEXT
  8
DRD
 10
1.1840
 20
-0.6110
 40
0.1500
 41
0.8000
  1
DIAM
 50
0.0000
  0
TEXT
  8
DRD
 10
2.0530
 20
-0.6110
 40
0.1500
 41
0.8000
  1
TOL
 50
0.0000
  0
TEXT
  8
DRD
 10
2.7300
 20
-0.6110
 40
0.1500
 41
0.8000
  1
QTY
 50
0.0000
  0
TEXT
  8
DRD
 10
3.5370
 20
-0.6110
 40
0.1500
 41
0.8000
  1
NOTE
 50
0.0000
  0
TEXT
  8
DRD
 10
1.1350
 20
-0.7610
 40
0.1000
 41
0.8000
  1
0.457 mm
 50
0.0000
  0
TEXT
  8
DRD
 10
2.9200
 20
-0.7610
 40
0.1000
 41
0.8000
  1
45
 50
0.0000
  0
TEXT
  8
DRD
 10
1.1350
 20
-0.9110
 40
0.1000
 41
0.8000
  1
0.864 mm
 50
0.0000
  0
TEXT
  8
DRD
 10
2.9900
 20
-0.9110
 40
0.1000
 41
0.8000
  1
6
 50
0.0000
  0
TEXT
  8
DRD
 10
1.1460
 20
-1.0610
 40
0.1000
 41
0.8000
  1
1.499 mm
 50
0.0000
  0
TEXT
  8
DRD
 10
2.9310
 20
-1.0610
 40
0.1000
 41
0.8000
  1
12
 50
0.0000
  0
TEXT
  8
DRD
 10
1.1460
 20
-1.2110
 40
0.1000
 41
0.8000
  1
1.649 mm
 50
0.0000
  0
TEXT
  8
DRD
 10
2.9900
 20
-1.2110
 40
0.1000
 41
0.8000
  1
4
 50
0.0000
  0
TEXT
  8
DRD
 10
1.1460
 20
-1.3610
 40
0.1000
 41
0.8000
  1
3.175 mm
 50
0.0000
  0
TEXT
  8
DRD
 10
2.9900
 20
-1.3610
 40
0.1000
 41
0.8000
  1
4
 50
0.0000
  0
TEXT
  8
DRD
 10
1.3530
 20
-1.5610
 40
0.1500
 41
0.8000
  1
TOTAL
 50
0.0000
  0
TEXT
  8
DRD
 10
2.8860
 20
-1.5610
 40
0.1500
 41
0.8000
  1
71
 50
0.0000
  0
ENDSEC
  0
EOF
